Jimi Hendrix - Fire Chords & Tabs

 

Fire Chords & Tabs

Jimi Hendrix Chords & Tabs

Version: 3 Type: Bass Tab 0 ratings
1 star 2 stars 3 stars 4 stars 5 stars
comments

Fire Bass Tab

   
Song: Fire
Artist: Jimi Hendrix
Album: Experience Hendrix: The Best of Jimi Hendrix
tabbed by: cardplay25@yahoo.com
**Finger It**

Intro
G----------------|
D-6-5/0--3-5-0-0-|
A----------------| 2x
E----------------|

Verse One
G---------|
D---------|
A-0-3-5-5-| 6x
E---------|

Chorus
G-------------------------|
D-------------------------|
A-5-5---------2-2-3-3-4-4-| 2x
E-----3-4-4-5-------------|

G---------------------------|
D---------------------------|
A-5-5---------2-2-3-3-4-4-5-|
E-----3-4-4-5---------------|

Verse Two
G---------|
D---------|
A-0-3-5-5-| 5x
E---------|

Chorus
G-------------------------|
D-------------------------|
A-5-5---------2-2-3-3-4-4-| 3x
E-----3-4-4-5-------------|

Brige
G--------------------------------------------------------------------|
D--------------------------------------------------------------------|
A-5-5-5-5-5-5-5-5--3-3-3-3-3-3-3-3-------------------3-3-3-3-3-3-3-3-|
E-----------------------------------5-5-5-5-5-5-5-5------------------|

Guitar Solo (2nd Chorus)
G-------------------------|
D-------------------------|
A-7-7---------4-4-5-5-6-6-| 3x
E-----5-6-6-7-------------|

G---------------------|
D---------------------| 
A-7-7---------4-4-5-5-|
E-----5-6-6-7---------|
[ Tab from: http://www.guitartabs.cc/tabs/j/jimi_hendrix/fire_btab_ver_3.html ]
G----------------|
D-6-5/0--3-5-0-0-|
A----------------| 2x
E----------------|

Verse Three
G---------|
D---------|
A-0-3-5-5-| 6x
E---------|

Chorus
G-------------------------|
D-------------------------|
A-5-5---------2-2-3-3-4-4-| 3x
E-----3-4-4-5-------------|

Outro
G------------------------------------------------------|
D------------------------------------------------------|
A-7-7-7---------4-4-5-5-6-6--7-7-7---------4-4-5-5-6-6-|
E-------5-6-6-7--------------------5-6-6-7-------------|

G--------------------------------------------------|
D--------------------------------------------------|
A-5-5---------2-2-3-3-4-4--5-5---------2-2-3-3-4-4-| 
E-----3-4-4-5------------------3-4-4-5-------------|

G-----------------------------------------------------------------|
D---------------------------------------------------6-5\0-3-5-0-0-|
A-7-7-7---------4-4-5-5-6-6--7-7-7---------4-4-5-5----------------|
E-------5-6-6-7--------------------5-6-6-7------------------------|

G----------------------------------------------------------|
D----------------------------------------------------------|
A-4-5-6-7-7---------4-4-5-5-6-6--7-7---------4-4-5-5-6-6-7-| fades out
E-----------5-6-6-7------------------5-6-6-7---------------|

if anything wrong, e-mail me. enjoy
Comments