Jimi Hendrix - Ezy Ryder Chords & Tabs

 

Ezy Ryder Chords & Tabs

Jimi Hendrix Chords & Tabs

Version: 2 Type: Tab 0 ratings
1 star 2 stars 3 stars 4 stars 5 stars
comments

Ezy Ryder Tab

Tuning = 1/2 step down

       Time =4/4   
                               (3x)
       |------------------------|------------------------------|
       |------------------------|------------------------------|
       |------------------------|------------------------------|
       |------------------------|------------------------------|
       |--2--4--4/5-----5/7-----|--0^2--0----------------------|
       |--0----------0-------0--|----------3(1/2b)--0--4/5--0--|

       |---------------------------------|-----------------------|
       |---------------------------------|-12-12-12-12-12-12--12-|
       |---------------------------------|-----------------------|
       |---------------------------------|-10-10-10-10-10-10--10-|
       |--2--4--4/5--2--4--4/5---2--4--5-|-----------------------|
       |--0----------0-----------0-------|-----------------------| 
  
       1st verse:
       There goes Ezy, Ezy Rider  
       |--------------------------------------|
       |--------------------------------------|
       |--------------------------------------|
       |-----------------------------7-7--5v--|
       |---------------2--4--5v--5/7----------|
       |--0--1--2--3v-------------------------|

       Riding down the highway of desire 
       |-------------------------------------|
       |-------------------------------------|
       |-------------------------------------|
       |-------------------------------------|
       |---------------2--4--5v--4-5-4-5-4-5-|
       |--0--1--2--3v------------------------|

       
       Variation:
       |--------------------------------|
       |--------------------------------|
       |--------------------------------|
       |--------------------------------|
       |-5-4-5-4-5-4-5-4-5-4-5-4-5-4-5--|
       |--------------------------------|
[ Tab from: http://www.guitartabs.cc/tabs/j/jimi_hendrix/ezy_ryder_tab_ver_2.html ]
       |--------------------------------|
       |--------------------------------|      
       |--------------------------------|
       |--------------------------------|
       |-7-6-7-6-7-6-7-6-7-6-7-6-7-6-7--|
       |--------------------------------|

                          (4X)                     E7#9
       |------------------------------------------------|
       |-------------------------------------------8--8-|
       |-------------------------------------------7--7-|
       |--7(1b)--7-----5--7--------7(1b)--7--------6--6-|
       |------------7--------5--7------------7-----7--7-|
       |------------------------------------------------|


       How long, do you...
                        (3x)
       |----------------------------|
       |--------------------8-------|      
       |----------------7-----------|
       |---------7--9----------9v---|
       |-5--7-----------------------|      
       |----0-----------------------|

       |-------------------------|
       |-------------------------|      
       |-12--14--16--14--10--9---|
       |-------------------------|
       |-10--12--14--12--12--7---|      
       |-------------------------|

             
        See all the lovers say...
                           (4X)
       |------6------8--------10-------------------------|
       |------6------8--------10-------------------------|
       |--------------------------------12(1/2b)---------|
       |-------------------------------------------------|
       |--------------------------12-14-----------14-12v-|
       |-3-3----5-5-----7-7------------------------------|

       Gonna be stoned...
       |-------------------------|
       |-------------------------| 
       |----------------2(1b)^2v-|
       |-2-----------------------|
       |-2-----------------------|
       |-0--3(1/2b)--0-----------| 
Comments