Jimi Hendrix - Dolly Dagger Chords & Tabs

 

Dolly Dagger Chords & Tabs

Jimi Hendrix Chords & Tabs

Version: 3 Type: Tab 0 ratings
1 star 2 stars 3 stars 4 stars 5 stars
comments

Dolly Dagger Tab

Jimi Hendrix
Dolly dagger
By Stephen Mc Carthy
Standard tuning (EADGBe)

Trying to tab a Hendrix song was a much more frustrating task than I though! 
I realise this tab isn't perfect but try to look at it as more of a rough 
guide to the song as It was the best I could do for now and it is quite close.
By the way I found that learning part of these solos are a great idea if you want
to play like the god himself. 

Main riff
|--------------------------------------------------|
|--------------------------------------------------|
|--------------------------------------------------|
|-15--11-13------------------------------------11--|
|-----------11----15--11--13----------------13-----|
|----------------------------13--13--12--11--------|

Chorus
|-6----------x-----------------------------------|
|-6----------x-----------------------------------|
|-7--8bu(9)--x-------------------------6--6bu(8)-|
|------------x---------------------6-8-----------|
|------------x-6-7-8---------6-7-8---------------|
|------------x-------6---6-9---------------------|

Verse
|-6-6-x-6--10-10-x-10--13-13-x-13------------|
|-6-6-x-6---9--9-x--9--15-15-x-15------------|
|-7-7-x-7--10-10-x-10--13-13-x-13------------|
|----------------------------------8-6---6-8-|
|--------------------------------------8-----|
|--------------------------------------------|

Solo 1
|-------------------------------------------------------------x-x-x-x|
|--------------------------------9bu(11)----------------------x-x-x-x|
|-8bu(10)-6-----6--------6---6--------------8bu(10)-6-----6---x-x-x-x|
|-----------8-8--------8---8--------------------------8-8-----x-x-x-x|
|-------------------------------------------------------------x-x-x-x|
|-------------------------------------------------------------x-x-x-x|

Solo 2
|---------------------------------------------------------------------------|
|-9bu(11)-9-6--------------------------6-9-6-9bu(11)-9bu(11)-6--------------|
|-------------8bu(9)-6---8bu(10)-8-6----------------------------8bu(10)-(10)|
|---------------------------------------------------------------------------|
|---------------------------------------------------------------------------|
|---------------------------------------------------------------------------|

|------------------------------------------------9bu(11)-(11)-(11)-(11)-(11)|
|---------------------------------------------6-----------------------------|
|-8-6-----8--8bu(10)----8-6-----------------8-------------------------------|
|---------------------------8-6---------------------------------------------|
|-------------------------------8-7-6---------------------------------------|
|-------------------------------------9-6-----------------------------------|
[ Tab from: http://www.guitartabs.cc/tabs/j/jimi_hendrix/dolly_dagger_tab_ver_3.html ]
|-(11)-(11)-9-6--6---------------6-9--------------------------------------|
|-------------------9-6--------6-----9-6----------------------------------|
|-----------------------8-6--8-----------8-6------------------------------|
|--------------------------------------------8-6----------------------6-8-|
|------------------------------------------------8-7-6-----------6-8------|
|-------------------------------------------------------9-6--6-9----------|

|---6-12bu(14)-(14)----6--14bu(16)-(16)--x-x----x-x----------------6--------|
|-6------------------6-------------------x-x----x-x--------------6---9-6----|
|----------------------------------------x-x-6--x-x-------8bu9-----------8-6|
|----------------------------------------x-x-6--x-x-8-----------------------|
|---------------------------------------------------8-----------------------|
|---------------------------------------------------------------------------|

|----------------------------|
|----------------------------|
|-8--6----6------------------|
|-------8---8--6--8----------|
|--------------------8--6----|
|--------------------------9-|

Better watch out baby here comes your master...
|----------------------------------------------------------------------|
|---------------------------------------------9---------9------8-6-8---|
|-8bu(9)---8-6-----------6----6-------8bu(10)---8bu(10)----8-6-------6-|
|--------------8--6-7-8----------8-6-----------------------------------|
|----------------------------------------------------------------------|
|----------------------------------------------------------------------|

|------------6---6--------------------------------------6--9--|
|--------------------9bu(11)-9-6----------------------6-------|
|---8bu(10)----------------------8-6----8-----8bu(10)---------|
|-----------------------------------8-6-----------------------|
|-------------------------------------------------------------|
|-------------------------------------------------------------|

|-13-11--------------------------------6-9--9-6-----------------------------|
|-------14-11-----------------------6-----------9----6---6---------6--------|
|-------------13-10---------8bu(10)--------------------8---8---------6-8-6--|
|-------------------13-11------------------------------------8--------------|
|---------------------------------------------------------------------------|
|---------------------------------------------------------------------------|

|-----------------------|
|-----------------------|
|---------------------6-|
|-10-6-8------------8---|
|---------8---8-7-6-----|
|-----------------------|

Outro
|-9-9-11-11-----------------------9-9--11-11-14-14-16-16-16-16-16-16|
|-9-9-11-11-----------------------9-9--11-11-14-14-16-16-16-16-16-16|
|//-//-//-//--8bu(10)-6---x-x-x--//-//-//-//-//-//-//-//-//-//-//-//|
|//-//-//-//------------8-x-x-x--//-//-//-//-//-//-//-//-//-//-//-//|
|-------------------------x-x-x-------------------------------------|
|-------------------------x-x-x-------------------------------------|
(tremolo double stops)

|-16-16-16-16-16-16-16-16-
|-16-16-16-16-16-16-16-16-
|-//-//-//-//-//-//-//-//-seeming the rest of the outro seems to go on 
|-//-//-//-//-//-//-//-//-forever its best to improvise using the 
|-------------------------A# minor blues scale at 18th fret and finish
|-------------------------off at the normal 6th fret position like Jimi does.
Comments