Jimi Hendrix - Castles Made Of Sand Chords & Tabs

 

Castles Made Of Sand Chords & Tabs

Jimi Hendrix Chords & Tabs

Version: 3 Type: Tab 0 ratings
1 star 2 stars 3 stars 4 stars 5 stars
comments

Castles Made Of Sand Tab

   
                              CASTLES MADE OF SAND
                   As recorded by The Jimi Hendrix Experience
                    (From the 1968 Album AXIS: BOLD AS LOVE)

Words and Music by Jimi Hendrix
Transcribed by www.mikesguitarsite.co.uk

 Intro
  Freely Q=126
 4/4
  Gtr I
|-3---------3s==|
|-----------1s==|
|---------------|
|-----------3s==|
|---------------|
|-----------1s==|
|
| Gtr II
| <
|---------------|
|---------------|
|-3p0-----------|
|-----5-(5)p==3-|
|---------------|
|---------------|


|-5-----5s===8-----------8s==10----------10s=====8---------8s|=5-5s3-3s5----|
|-3-----3s===6-----------6s===8-----------8s=====6---------6s|=3-3s1-1s3----|
|------------------------------------------------------------|--------------|
|-5-----5s===8-----------8s==10----------10s=====8---------8s|=5-5s3-3s5----|
|------------------------------------------------------------|--------------|
|-3-----3s===6-----------6s===8-----------8s=====6---------6s|=3-3s1-1s3----|
|
|------------------------------------------------------------|--------------|
|------------------------------------------------------------|--------------|
|------------------------------------------------------------|--------------|
|------------------------------------------------------------|--------------|
|--------------------------9-(9)----8h10p===8----8h10p8------|--------------|
|-3-3p0---6-(6)h8p6-8s10---------10-----------10--------8----|--------------|


             Slower Q=94
              1/4     4/4
|-(5)--------|-------|----------------------------------------|
|-(3)--------|-------|-----------7h10p7-----------------------|
|------------|-------|------------------7-------------7\------|
|-(5)--------|-------|-------7s9--------9-7------7---(7)\-----|
|------------|-------|-----5----------------10-(10)-(10)\-(0)-|
|-(3)--------|-3-[3]-|-5s7------------------------------------|


|----------------------------|
|---------5---------------5--|
|---------5-5-5-5------------|
|---------5-5-7-5---5-----5--|
|-----------------8-----8----|
|-2s3h5-8-------------6------|


  Gtr I
                                                     ~~~
|-------------------------|------------------------------||
|---3---------------------|-----3------------------------||
|---4-------------5-(5)-5-|-----4-----5-5-------5---(5)--||
|---5-----3-3-----5-(5)-5-|-----5-----3-3-------5-5-(5)--||
|-----3h5-----5s7---------|-------3h5------5s=7----------||
|-3------------------6----|--3-----------------------6---||
|
| Gtr II
| <
|-------------------------|------------------------------||
|-------------------------|------------------------------||
|-------------------------|------------------------------||
|-5-----------------------|-(5)-----------(5)h7p5--------||
|-------------------------|------------------------------||
|-------------------------|------------------------------||


 Verse 1
|-------------------------------|
|-------------------------------|
|-----------0-----------0-------|
|--------3--3-3-----3---3-------|
|--------3--3---3-3---3---------|
|--1--1---------1-1-------1s3---|
|
|-------------------------------|
|-------------------------------|
|-------------------------------|
|-(5)---(5)-----7p==============|
|-------------------------------|
|-------------------------------|


|----------------------------------------|
|--------------------5-----5-------------|
|---------5h=7--(7)------5h7p5-----------|
|------------------------------7-7-5---5-|
|----------------------------------5h7---|
|-5--------------------------------------|
|
|----------------------------------------|
|----------------------------------------|
|----------------------------------------|
|-5h7s9-9---(9)s=7p5---------------------|
|----------------------7p==5-------------|
|----------------------------------------|


                           2/4
|-------------------------|-----------------|
|----8--12-12-12-12p0-----|-------------5---|
|-------------------------|-------------5---|
|----9--12-12-12-12-------|-------------5---|
|-------------------------|-------3-5s7-----|
|-0---------0--0--0---0-0-|-1h3s5-----------|
|
|-------------------------|-----------------|
|-------------------------|-----------------|
|-------------------------|-----------------|
|-------------------------|-----------------|
|----7p==5----------------|-----------------|
|-------------------------|-----------------|


 4/4
|-----------------------------|
|-------3-3-x-----------------|
|-------0-0-x-----3-3-----3-3-|
|-------5-5-------3-3-----3-3-|
|---5---------0h5-----0h5-----|
|-3---3-----------------------|
|
|-----------------------------|
|-----------------------------|
|-----------------------------|
|-----------------------------|
|-----------------------------|
|-----------------------------|


|-----5-5---------------------|-------------------------|
|-----3-3--------------3------|------1--1-1-------------|
|-----0---0-2h4p2-0-2h=4------|-------------------------|
|-----5-------------------5p3-|------3--3-3----3-----3--|
|-----------------------------|-------------------------|
|-3-3-------------------------|-1------------1---3s5----|
|
|-----------------------------|-------------------------|
|-----------------------------|-------------------------|
|-----------------------------|-------------------------|
|-------------5-------(5)-----|-5s7-(7)---7s10-7s9------|
|-------------------------5h8-|-------------------------|
|-----------------------------|-------------------------|


|---------------0-----0-----------|
|---------------0-0---0-----------|
|---------0h=2----2s4-----4s2p0---|
|-------------------------------2-|
|--0------------------------------|
|---------------------------------|
|
|---------------------------------|
|---------------------------------|
|---------------------------------|
|-(9)-9s7-------7s5---7p5---5-----|
|-----------(7)-----7-------------|
|---------------------------------|


                                2/4
|------------------------------|-----------------|
|------------------------------|-----------------|
|------------------------------|-------(0)-----5-|
|-------(0)h(2)-(2)2p0---------|--------4------5-|
|----------------------0h2-2-0-|-----------3s7---|
|-0----------------------------|-3s=5------------|
|
|------------------------------|-----------------|
|------------------------------|-----------------|
|------------------------------|-----------------|
|---5----------------------5---|---(5)-----------|
|-7---7-----(7)s=5s3-----------|-----------------|
|------------------------------|-----------------|


 4/4
|-----------------------------------|
|-----------------------------------|
|-------0-------------0-----5---5---|
|-------5-------------5-----5---5---|
|-------5-----------5-5-5s7---------|
|-3-3------------3------------------|
|
| ~
|-----------------------------------|
|-----------------------------------|
|-----------------------------------|
|-5-----5h7p5h7-(7)s==9s7p5---------|
|-----5---------------------7p5p==0-|
|-----------------------------------|


                     Chorus
|------------------||---------7-------------------|
|------------------||---------7h10p7-7------------|
|------------------||---------7------7--------7\--|
|-------5----------||-------7----------7----7-----|
|-----5-----5------||-----5--------------10-------|
|-3-3-3---3-3--3-3-||-5s7-------------------------|
|
|------------------||-----------------------------|
|------------------||-----------------------------|
|------------------||-----------------------------|
|------------------||-----------------------------|
|------------------||-----------------------------|
|------------------||-----------------------------|


|----------------------------|----------------------------|
|----------------------------|----------------------------|
|------5-----5-------5-----5-|------0---------------------|
|------5-5-7-5---5---5-----5-|------5--5p0-----[3]-3----5-|
|----3---------8---8-----8---|---5---------3h5------------|
|-/5-------------------6-----|-3---------------------/6---|
|
|                                   ~~~~~~~~~~~~~~~~~~~~~~~
|----------------------------|----------------------------|
|----------------------------|----------------------------|
|----------------------------|-----(0)--------------------|
|----------------------------|----------------------------|
|----------------------------|----------------------------|
|----------------------------|----------------------------|


                      ~~~~~
|------------------------------||
|------------------------------||
|-----4-----3-------5----------||
|-----5-----3-3-----5-5--------||
|-----5-3h5-----5s7------------||
|--3------------------6b6.5----||
|
|~~~~~
|------------------------------||
|------------------------------||
|-(0)--------------------------||
|------------------------------||
|------------------------------||
|------------------------------||


 Verse 2
|-----------------------------|
|----1-1-1--------------------|
|----0-0------------------0---|
|----3-3----------3---3-3-----|
|-------------------3-3-------|
|-1--------3s=5---------------|
|
|-----------------------------|
|-----------------------------|
|-----------------------------|
|-5s=====7s==10s7s5---5h7p5-7S|
|-----------------------------|
|-----------------------------|


|-------------------------5-5-|---------------------------|
|------5----5-------------5-5-|---8-----------------------|
|-------------------------5-5-|---7------------9-(9)\-----|
|------7----7---------7---7-7-|---9-9---9-----------------|
|------7----7-----------------|---7---7-7-7h10----------0-|
|-5--------------5s=7---5-----|-0---------------------0---|
|
|                ~~~
|-----------------------------|---------------------------|
|-----------------------------|---------------------------|
|-----------------------------|---------------------------|
|-9-7-(7)p5---5-(5)-----------|---------------------------|
|-----------------------------|---------------------------|
|-----------------------------|---------------------------|


 2/4        4/4
|----------|-------3-----3---------|---------------------------|
|----------|-----3---3h5---3-------|-------3--3-3-3---3--------|
|--------5-|---------------2h4-2---|----------2-4-2---2-2------|
|---3----5-|---------------------0-|-0-0-0-3--3-3---3---3-3----|
|---3-/7---|-----------------------|---------------------------|
|-1--------|-3-3-------------------|-3-3-3-3------------3---2--|


  Gtr I
|-----------------------|--------------------------|-----------------------|
|-----------------------|--------------------------|-----------------------|
|-----0-------------0---|--------------------------|-------------7-7-7-----|
|-----3-------------3---|----------------------5h7-|-----9-9-9---9-9-9-7---|
|-----3--3--------------|--7-----7-7-9-9-0-5h7-----|-----7-7-7---7-7-7-7---|
|-1--------1----1-------|--5-----------------------|-0-0-------0---------0-|
|
| Gtr II
|-----------------------|--------------------------|-----------------------|
|-----------------------|--------------------------|-----------------------|
|-----------------------|--------------------------|-----------------------|
|-5--(5)-5s7s5s10-7s9-7-|-(7)p5--------------------|-----7p5---------------|
|-----------------------|--------------------------|-7p5-------------------|
|-----------------------|--------------------------|-----------------------|


 2/4             4/4
|---------------|------------------------|-----------------||
|---------------|-----3--(3)-----3-3-----|-3---------------||
|-------------5-|-----0--(0)-0-0-0-0---0-|-0---------------||
|-------------5-|-----5--(5)-5-5-5-5---5-|-5--------5------||
|-------3-5s7---|-----3--(3)---------3---|-3--------3------||
|-1h3s5---------|-3-3----------------3---|-3--3-3-3-3--3-3-||

[ Tab from: http://www.guitartabs.cc/tabs/j/jimi_hendrix/castles_made_of_sand_tab_ver_3.html ]
 Chorus
  Gtr I
|----------------------------|------------------------|
|---------7-10-7-------------|------------------------|
|----------------7--------7\-|-----------5-----5---5\-|
|-------7----------7----7----|-------(7)-5-----5-5-5\-|
|-----5--------------10------|-----5-------5h7---8----|
|-5s7------------------------|-/7---------------------|
|
| Gtr II
|----------------------------|------------------------|
|----------------------------|------------------------|
|----------------0-----------|-(0)--------------------|
|----------------------------|------------------------|
|----------------------------|------------------------|
|----------------------------|------------------------|


|-------3-----3------------------------|
|-------3h==5-3-3---3----3-----3-3-----|
|-------------0-2h4-2----2-2-----2-----|
|-------------------0----3----------3--|
|--------------------------------------|
|--3-----------------------------------|
|
|--------------------------------------|
|--------------------------------------|
|-(0)s3s==7s==5s==3----------/12-------|
|----------------------------/12---12--|
|--------------------------------------|
|---------------------3s15s3-----------|


|------------------------------------------------------||
|------------------------------------------------------||
|-------------3----------------5----------5------------||
|-------------3----3--3--------5----------5----------5-||
|--------3h=5------------5s=7--------------------------||
|--3----------------------------------------------6----||
|
|------------------------------------------------------||
|------------------------------------------------------||
|----12--------------10----12-12b14==(12)r==(12)-12s10-||
|-12----12\---0S12------12-----------------------------||
|------------------------------------------------------||
|------------------------------------------------------||


 Guitar Solo
|--------------------------------------|-------------------------------------------------------|
|--------------------------------------|-------------------------------------------------------|
|-----------3-----3--------------------|-------------3---------------------------------5\------|
|-----------3-----3--------5-5-----5-5-|-------------3--------------5-5----------------5\------|
|----5--------------5s==7--------------|--------3h5---------5---7------------------------------|
|--3-3--------------------------6------|-/3---------------------------------------6------------|
|
|  ~~                        ~~~~~~~
|--------------------------------------|--------------------------------------------------3----|
|--------------------------------------|--------3------------------------------------3-7-------|
|-12---12-(12)s11-----(11)s5-5-(5)s==3-|----5-3---5-(5)p3---3h5p==3-5---5b7==(5)r(5)-----------|
|--------------------------------------|--5---------------5------------------------------------|
|--------------------------------------|-------------------------------------------------------|
|--------------------------------------|-------------------------------------------------------|


|------------------------------------------------|
|------------------------------------------------|
|-----------4--4-------------3\-------5-5-----/5\|
|-----------5--5-------------3\-------5-5-----/5\|
|-----------5-----3--5-----------5--7------------|
|-------3---------------------------------6-0----|
|
|                                ~~~
|--------------------3---------------------------|
|-6b8==(6)r(6)-6-(6)-----------------------------|
|----------------------5b7==(5)r(5)------------3s|
|------------------------------------------------|
|------------------------------------------------|
|------------------------------------------------|


|----------------------------------------------------------------------------------------||
|------------------------------------------------------------------------------5------5\-||
|------4------------------------------3----3---------------------5-------------5------5\-||
|------5-------5----------------------3----3------------5--------5-------------5------5\-||
|------5---------------------3h===5--------------5s7-------------------------------------||
|--3---------------------------------------------------------------------6--0------------||
|
|  ~~
|--------------------------------------------------------------------------15------------||
|------------------------------------12h15------12---15---15pb17r==(15)-15----15pb17=====||
|-12-(12)--------12h14b16==(14)r(14)---------14------------------------------------------||
|---------(14)---------------------------------------------------------------------------||
|----------------------------------------------------------------------------------------||
|----------------------------------------------------------------------------------------||


 Verse 3
|----------------------------------------------------------|
|----------------------------------------------------------|
|----------------------------------------------------------|
|---3--------3----------------------3----------------------|
|---3------------------------3-----------------------------|
|---1-------------------1-----------------------3s======5--|
|
|                    ~~~~~~~~~~
|----------------------------------------------------------|
|-(15)r(15)-15pb17==15-15-x-15-15r-15pb17r(15)-15pb17r(15)-|
|----------------------------------------------------------|
|----------------------------------------------------------|
|----------------------------------------------------------|
|----------------------------------------------------------|


|-------------------------------------------------------------------------|
|-------------------------------------------------------------------------|
|-------------------------------------------9-----9-----9----9----9-------|
|----------7---------------------7----7-----7-----7-----7----7----7-------|
|-------------------------------------------------------------------------|
|----------5------------5--------5----5-----5-----5-----5----5----5-------|
|
|-------------------------------------------------------------------------|
|-15b17==(15)-15-15-15-15-15-15-15-15---15-15-15-15-15-15-15---15---15-15-|
|-------------------------------------------------------------------------|
|-------------------------------------------------------------------------|
|-------------------------------------------------------------------------|
|-------------------------------------------------------------------------|


|---------------------------------------------------------|
|--8---------------------8-----------------------10--8-8--|
|--7---------------------7----------7---7--------(7)-7-7--|
|--9---------------------9----------9---9----9-9--9--9-9--|
|--7---------------------------------------7-7-7----------|
|--0------------------------------------------------------|
|
|---------------------------------------------------------|
|-15-(15)r-(15)pb16==15-15-15b17==(15)-15r----------------|
|---------------------------------------------------------|
|---------------------------------------------------------|
|---------------------------------------------------------|
|---------------------------------------------------------|


 2/4                 4/4
|-------------------|-------3h5-3-3-3---5--------------|
|-----3-3-----------|-3-3-3---3-3-3-3-3-5--------------|
|-----0-0-------5-5-|----------------------------------|
|-----3-3-------5-5-|-5-5-5---5-------5-5--------5-6\--|
|-3s5-----5s7-7-----|-------------------5--5s=7--------|
|-------------------|-3-3-3----------------------------|
|
|-------------------|----------------------------------|
|-------------------|----------------------------------|
|-------------------|---------------------12h14p12-----|
|-------------------|----------------------------------|
|-------------------|----------------------------------|
|-------------------|----------------------------------|


|---------5-5-5-5-------------|
|---------3-3-3-3-----2-2-2-2-|
|---------0---0-0---0---------|
|---------5---5-5---5-4-4-4-4-|
|-----------------------------|
|-3-3-3-3---------3---2-2-2-2-|
|
|-----------------------------|
|-----------------------------|
|-----------------------------|
|-----------------------------|
|-----------------------------|
|-----------------------------|


|-----------------------|----------------------------|
|-----1-----------------|-------5--------------5-----|
|-----0--0--0-0-------0-|-----0----------------------|
|-----3-----------3-3-3-|-/7----7------7----7--------|
|-----------------------|---------(5)----------------|
|--1--1---------1-------|-/5-------------5-----------|
|
|           ~~
|-----------------------|----------------------------|
|-----------------------|----------------------------|
|-12----12-14-----------|----14---14--14---12--------|
|----14-----------------|---------------------14p12--|
|-----------------------|----------------------------|
|-----------------------|----------------------------|


                            2/4       4/4
|--------------------------|---------|---------------|
|-----8--------------------|---3---1-|------3--------|
|-----7---------9s7-(7)-9\-|---2---0-|----4---4------|
|-----9--------------------|---3-----|----5-----5----|
|-----7-----/10------------|-----3---|----5-------5--|
|-0-0---0-0----------------|-1-------|-3----------3--|


                             Outro
 2/4           4/4
  Gtr I
|-------------|-3----------||----------------------------------|
|-------------|-3----------||-----------7h10p7-----------------|
|-------------|-0----------||------------------7-----7---7\----|
|-------5---5-|-5----------||-------7s9--------7-9---7---7\----|
|-------5-----|-5----------||-----5----------------7h9-7h9\----|
|-3-3-3-3-3---|-3------3-3-||-5s7---------------------------2s=|
|
| Gtr II
|                               ~
|-------------|------------||----------------------------------|
|-------------|------------||----------------------------------|
|-------------|------------||----------------------------------|
|-------------|--------5---||---7------------------------------|
|-------------|------------||----------------------------------|
|-------------|------------||----------------------------------|


|-----------------------------|--------------------------------|
|-------5---------------------|--------------------------------|
|-----5-5---5-----------------|--------3-----------5-------5s3-|
|-------5---5---3-5-(5)-------|----3---3-3-(3)-----5-5-----5s3-|
|---3-------------8-(8)-0h8-8-|----3-5------5--5s7-------------|
|-5-------6---6---------------|-3----------------------6-6-----|


  H.=H
  Gtr I
|-------------------------------------------------------|
|-----4-------------------------------------------------|
|-----3------------3-------------5--5-------------------|
|-----5------------3--3----------5--5--------------5\---|
|---------3---5-------------6-7-------------------------|
|-3---------------------------------------6---6---------|
|
| Gtr II
|                           ~                   ~~~~~~
|-------------------------------------------------------|
|-------------------------------------------6---8-(8)---|
|---------3h5p==3-(3)---5s7-5---(5)s==3-5s7-----------0-|
|-5s3h5-5-----------------------------------------------|
|-------------------------------------------------------|
|-------------------------------------------------------|


|-----------------------------------||
|-----3-----------------------------||
|-----4---------3-------5-5---------||
|-----5-----3---3-3-----5-5-----5\--||
|-----------3-5-----6-7-------------||
|--3------------------------7-7-----||
|
|-----------------------------------||
|-----------------------------------||
|-(0)-0h2h3-------------------------||
|-----------------------------------||
|-----------------------------------||
|-----------------------------------||


  Slower Q=72
  Gtr I
|-3-3---5s3-3s5-5s8-8s5-|-5s10-10s8-8s5-5s8-8s3-3s5-5s3-3s5-|
|-3-3---3s1-1s3-3s6-6s3-|-3s=8--8s6-6s3-3s6-6s1-1s3-3s1-1s3-|
|-0---------------------|-----------------------------------|
|-5-----5s3-3s5-5s8-8s5-|-5s10-10s8-8s5-5s8-8s3-3s5-5s3-3s5-|
|-5---------------------|-----------------------------------|
|-3-----3s1-1s3-3s6-6s3-|-3s=8--8s6-6s3-3s6-6s1-1s3-3s1-1s3-|


|-5s3-3s5-5s8-8s5-5s10-10s8-8s12-12s10-|
|-3s1-1s3-3s6-6s3-3s=8--8s6-6s10-10s=8-|
|--------------------------------------|
|-5s3-3s5-5s8-8s5-5s10-10s8-8s12-12s10-|
|--------------------------------------|
|-3s1-1s3-3s6-6s3-3s=8--8s6-6s10-10s=8-|


|-10s8-8s10-10s5-5s8-8s5-5s3-3s5-5s8-|-8s10-12-------*|
|--8s6-6s=8--8s3-3s6-6s3-3s1-1s3-3s6-|-6s=8-10-------*|
|------------------------------------|---------------*|
|-10s8-8s10-10s5-5s8-8s5-5s3-3s5-5s8-|-8s10-12-------*|
|------------------------------------|---------------*|
|--8s6-6s=8--8s3-3s6-6s3-3s1-1s3-3s6-|-6s=8-10-------*|



***************************************************************************************
* Generated using Power Tab Editor by Brad Larsen - http://powertab.guitarnetwork.org *
***************************************************************************************
Comments