Jimi Hendrix - Bleeding Heart Chords & Tabs

 

Bleeding Heart Chords & Tabs

Jimi Hendrix Chords & Tabs

Version: 1 Type: Tab

Bleeding Heart Tab

   
Bleeding Heart
Jimi Hendrix

      6  slow blues    tuned  step down
      8
e|----------------------------------------|
B|----------------------------------------|
G|--11--79--9b11~---11--9----11p9--------|
D|-------------------------9-------9/7----|
A|-------------------------------------9--|
E|----------------------------------------|
[ Tab from: http://www.guitartabs.cc/tabs/j/jimi_hendrix/bleeding_heart_tab.html ]
|------------------7----------------------| if there is anyone out
|----------------7---7-10-----------------|b there that knows the
|-----11--9~--9----------- entire intro---|please
|-----------------------------------------| tab it and post it!
|--/9-------------------------------------|
|-----------------------------------------|

Here are a couple o verse fills
       B to E
e|-------------------------|
B|-------------------------|
G|---11--9-----7h97h9-----|
D|----------9--------------|
A|-------------------------|
E|-------------------------|

       F# to E

e|-------------------------|
B|-------------------------|
G|-------------------------|
D|--------------2----------|
A|---------2h4-------------|
E|----2h4-----------0------|