Jim Orourke - Halfway To A Threeway Chords & Tabs

 

Halfway To A Threeway Chords & Tabs

Jim Orourke Chords & Tabs

Version: 1 Type: Tab 0 ratings
1 star 2 stars 3 stars 4 stars 5 stars
comments

Halfway To A Threeway Tab

   
Jim O'Rourke - halfway to a threeway

Tuning: D# G# C# F# A# D# (normal tuning, only half a note a lower)

it may very well be, that this song is played with a capo on 2. fret.
if so, you will need to change a few things.
the tab isn't perfect, it's just sort of a thing to orient yourself 
while playing. i guess it's better than nothing, because i myself 
dind't find any tabs to this beautiful song.



[a]
  Q  Q  E E E E   E E E E E E Q    Q  Q  Q  Q    Q  Q  Q  Q
|---------------|----------------|-2-----------|-------------|
|----3--------3-|-------2h3------|-------------|-------------|
|----4----4-----|---4-------4----|-------------|-------------|
|----4------4---|-----4-------4--|----4-----4--|----4--------|
|-2-----2-------|-2-------2------|-2-----2-----|-2-----------|
|---------------|----------------|-------------|-------2--3--|


  Q  Q  E Q.     E E E E E E Q    Q  Q  Q  Q
|--------------|-------0---2----|-0-------------|
|---------2----|-1S2------------|-------2-------|
|----4---------|----------------|---------------|
|----2---------|-----2-------2--|----2-----2----|
|--------------|-0-------0------|-0-----0-------|
|-4-----4------|----------------|---------------|



[ Tab from: http://www.guitartabs.cc/tabs/j/jim_orourke/halfway_to_a_threeway_tab.html ]
[B]
  Q  Q  E E Q    E E E E E E Q    Q  Q  E E E E   Q  Q  Q  Q
|----5---------|-4p2-------2----|---------------|-------------|
|----2----2----|-------5--------|-5-----------2-|-------------|
|----2---------|-----2-------2--|---------4-----|-------------|
|-----------2--|-0-------0------|----2------2---|----2-----2--|
|--------------|----------------|-0-----0-------|-0-----0-----|
|-2-----2------|----------------|---------------|-------------|


  Q  Q  E E Q    E E E E E E Q    Q  Q  E E Q    Q  Q  E E Q
|----5---------|-4p2-------2----|--------------|--------------|
|----2----2----|-------5--------|-5-------2----|--------------|
|----2---------|-----2-------2--|-------4------|-2-------2----|
|-----------2--|-0-------0------|----2------2--|----2------2--|
|--------------|----------------|-0-----0------|-0-----0------|
|-2-----2------|----------------|--------------|--------------|




[C]
  Q  Q  E E Q    E E E E E E Q    Q  Q  Q  Q    Q  Q  E E Q
|--------------|----------------|-------------|--------------|
|----2---------|-----------2----|-------------|--------------|
|----2----2----|-4p2---4--------|-2-----------|---------2----|
|----4------4--|-----2-------2--|----2-----2--|----2------2--|
|--------------|----------------|-0-----0-----|-0-----0------|
|-2-----2------|-4-------4------|-------------|--------------|


  Q  Q  E E Q    Q  E E E E Q    Q  Q  Q  Q    Q  Q  Q  Q
|--------------|---------------|-------------|-------------|
|----2---------|----------2----|-------------|-------------|
|---------2----|-4----4--------|-2-----------|-------------|
|-----------4--|----2-------2--|----2-----2--|----2-----2--|
|--------------|---------------|-0-----0-----|-0-----0-----|
|-2-----2------|-4------4------|-------------|-------------|


------------------------------------------------------------------------
wenn man mir schreiben mag usw:
if you want to write to me etc:
benny: 
der.schoenste.tag@gmx.net
------------------------------------------------------------------------
Comments