Jim Orourke - Good Times Chords & Tabs

 

Good Times Chords & Tabs

Jim Orourke Chords & Tabs

Version: 1 Type: Tab 0 ratings
1 star 2 stars 3 stars 4 stars 5 stars
comments

Good Times Tab

   
-----------------------------------------------------------------------------------------
Jim O'Rourke - Good Times
-----------------------------------------------------------------------------------------
even if some parts seem the same, there are slight variations
-----------------------------------------------------------------------------------------
		Parts:
Q=Quarter	[intro]
E=Eighth	[1-Git+Voice]
W=Whole		[2-Git+Voice]
.=dotted	[3-Instrumental: Git+Lapsteel]
etc etc		[4-Git+Voice]
		[5-Git+Voice]
		[6-Instrumental: Lapsteel+Git+Drums]
-----------------------------------------------------------------------------------------
[Intro]

		  Q  E Q  Q.  E  Q  E   Q  E Q  Q.   E Q  E
		|------2--2------0----|----------------------|
		|------0--0---------3-|------3--3------5--0--|
		|---------------------|------2--2------------|
		|----0----------------|----0-----------------|
		|---------------------|----------------------|
		|-3-----------3-------|-2------------2-------|


		  Q  E Q  E Q  E Q  E   Q  E Q  H    Q
		|------2--2------0----|--------------0----|
		|------0--0---------3-|------3--3---------|
		|---------------------|------2--2---------|
		|----0---------0------|----0--------------|
		|---------------------|-------------------|
		|-3---------3---------|-2-----------------|

-----------------------------------------------------------------------------------------
[1-Git+Voice]

		  Q  E Q  E Q  E Q  E   Q  E Q  E Q  E Q  E
		|------2--2------0----|-------------------0--|
		|------0--0---------3-|------3--3------0-----|
		|-------------------2-|------2--2------------|
		|----0---------0------|----0---------0-------|
		|---------------------|----------------------|
		|-3---------3---------|-2---------2----------|
			  I  may  be  dressed       as a doctor


		  Q  E Q  E Q  E Q  E   Q  E Q  E Q  E Q  E
		|------2--2------0----|----------------0-----|
		|------0--0---------3-|------3--3---------0--|
		|---------------------|------2--2------------|
		|----0---------0------|----0---------0-------|
		|---------------------|----------------------|
		|-3---------3---------|-2---------2----------|
		   dear				      But I'm not

		  Q  E Q  E Q  E Q  E   Q.   Q  E   Q  E Q  E
		|------2--2------0----|-----------|-----------|
		|------0--0---------3-|------3--3-|------3----|
		|---------------------|------2--2-|------2----|
		|----0---------0------|-----------|----0------|
		|---------------------|-----------|-2-------2-|
		|-3---------3---------|-2---------|-----------|
				I'm just   acting up

		  Q  E Q  E   Q  E Q  E   Q  E Q  E   Q  E Q  E
		|-----------|-----------|-----------|-----------|
		|------3--3-|------3--3-|------3--3-|------3--3-|
		|------0--0-|------0--0-|------0--0-|------0--0-|
		|-----------|-----------|-----------|-----------|
		|----2------|----2------|----2------|----2------|
		|-0---------|-0---------|-0---------|-0---------|
		              Got high hopes,

		  Q  E Q  E   Q  E Q  E   Q  E Q  E   Q  E Q  E
		|-----------|-----------|-----------|-----------|
		|------3--3-|------3--3-|------3--3-|------3--3-|
		|------0--0-|------0--0-|------0--0-|------0--0-|
		|-----------|-----------|-----------|-----------|
		|----2------|----2------|----2------|----2------|
		|-0---------|-0---------|-0---------|-0---------|
		              a passing thought
-----------------------------------------------------------------------------------------
[2-Git+Voice]

		  Q  E Q  E Q  E Q  E   Q  E Q  E Q  E Q  E
		|------2--2------0----|----------------------|
		|------0--0---------3-|------3--3------3-----|
		|---------------------|------2--2------2--0--|
		|----0---------0------|----0---------0-------|
		|---------------------|----------------------|
		|-3---------3---------|-2---------2----------|
			       I may act          like a bombardier

		  Q  E Q  E Q  E Q  E   Q  E Q  E Q  E Q  E
		|------2--2------0----|----------------------|
		|------0--0------0--3-|------3--3------3--0--|
		|---------------------|------2--2------2-----|
		|----0---------0------|----0---------0-------|
		|---------------------|----------------------|
		|-3---------3---------|-2---------2----------|
					        But don't be fooled,

		  Q  E Q  E Q  E Q  E   Q  E Q  E   Q  E Q  E
		|------2--2------0----|-----------|-----------|
		|------0--0---------3-|---------3-|------3--3-|
		|---------------------|------2----|------2--2-|
		|----0---------0------|----0------|----0------|
		|---------------------|-----------|-2---------|
		|-3---------3---------|-2---------|-----------|
			      cause my aim is off

		  Q  E Q  E   Q  E Q  E   Q  E Q  E   Q  E Q  E
		|-----------|------0----|-----------|-----------|
		|------3--3-|------3--3-|------3--3-|------3--3-|
		|------0--0-|---------0-|------0--0-|------0--0-|
		|-----------|-----------|-----------|-----------|
		|----2------|----2------|----2------|----2------|
		|-0---------|-0---------|-0---------|-0---------|
			   No need for alarm,

		  Q  E Q  E   Q  E Q  E   Q  E Q  E   Q  E Q  E
		|-----------|-----------|-----------|-----------|
		|------3----|------3----|------3--3-|------3----|
		|------0--0-|----2----0-|------0--0-|------0--0-|
		|-----------|-----------|----0------|----0------|
		|----2------|-----------|-----------|-----------|
		|-0---------|-2---------|-3---------|-3---------|
			     I'll catch you next time

-----------------------------------------------------------------------------------------
[3-Instrumental: Git+Lapsteel]

		  Q  E Q  E Q  E Q  E   Q  E Q  E Q  E Q  E
		|------2--2------0----|----------------------|
		|------0--0-----------|------5--5------5--3--|
		|----------------0--0-|------0--0------0--0--|
		|----4---------4------|----4---------0-------|
		|---------------------|-3---------3----------|
		|-0---------0---------|----------------------|


		  Q  E Q  E   Q  E Q  E   Q  E Q  E   Q  E Q  E
		|-----------|------0----|-----------|-----------|
		|------3--3-|------3--3-|------3--3-|------3----|
		|------0--0-|---------0-|------0--0-|------0--0-|
		|----0------|----0------|----0------|----0------|
		|-----------|-----------|-----------|-----------|
		|-3---------|-3---------|-3---------|-3---------|


                                       T
		  Q  E Q  E Q  E Q  E   Q  E Q  E Q  E Q  E
		|------2--2------0----|----------------------|
		|------0--0-----------|------5--5------5s=3--|
		|----------------0----|------0--0------0-----|
		|----4---------4----0-|----4---------4-------|
		|---------------------|-3---------3----------|
		|-0---------0---------|----------------------|


		  Q  E Q  E   Q  E Q  E
		|-----------|-----------|
		|-3----3----|------3----|
		|-0-------0-|----2----2-|
		|----0------|-----------|
		|-----------|-----------|
		|-3---------|-2---------|


		  Q  E Q  E   Q  E Q  E   Q  E Q  E   Q  E Q  E
		|-----------|-----------|-----------|-----------|
		|------3--3-|------3--3-|------3--3-|------3--0-|
		|------0--0-|------0--0-|------0--0-|------0----|
		|-----------|-----------|-----------|-----------|
		|----2------|----2------|----2------|----2------|
		|-0---------|-0---------|-0---------|-0---------|
[ Tab from: http://www.guitartabs.cc/tabs/j/jim_orourke/good_times_tab.html ]
-----------------------------------------------------------------------------------------
[4-Git+Voice]

		  Q  E Q  E Q  E Q  E   Q  E Q  E Q  E Q  E
		|------2--2------0----|----------------------|
		|------0--0---------3-|------3--3------3-----|
		|-------------------2-|------2--2------2--0--|
		|----0---------0------|----0---------0-------|
		|---------------------|----------------------|
		|-3---------3---------|-2---------2----------|
			 I'd like to    raise    the Titanic

		  Q  E Q  E Q  E Q  E   Q  E Q  E Q  E Q  E
		|------2--2------0----|----------------------|
		|------0--0---------3-|------3--3------3--0--|
		|---------------------|------2--2------2--0--|
		|----0---------0------|----0---------0-------|
		|---------------------|----------------------|
		|-3---------3---------|-2---------2----------|
		 here				    Take a walk,

		  Q  E Q  E Q  E Q  E   Q  E Q  E   S E. E Q  E
		|------2--2------0----|-----------|-------------|
		|------0--0---------3-|------3----|--------3----|
		|---------------------|------2----|--------2----|
		|----0---------0------|----0------|------0------|
		|---------------------|---------0-|-0h2-------2-|
		|-3---------3---------|-2---------|-------------|
			      down it's molding streets

		  Q  E Q  E   Q  E Q  E   Q  E Q  E   Q  E Q  E
		|-----------|-----------|-----------|-----------|
		|------0--3-|------3----|------3--3-|------3--3-|
		|---------0-|------0--0-|------0--0-|------0--0-|
		|-----------|-----------|-----------|-----------|
		|----2------|----2------|----2------|----2------|
		|-0---------|-0---------|-0---------|-0---------|
			  And feel right at home,

		  Q  E Q  E   Q  E Q  E   Q  E Q  E   Q  E Q  E
		|-----------|---------0-|-----------|-----------|
		|------3--3-|------3--3-|------3--3-|------3----|
		|------0--0-|------0--0-|------0--0-|------0--0-|
		|-----------|-----------|-----------|-----------|
		|----2------|----2------|----2------|----2------|
		|-0---------|-0---------|-0---------|-0---------|
			 'cause the dead don't talk

-----------------------------------------------------------------------------------------
[5-Git+Voice]

		  Q  E Q  E Q  E Q  E   Q  E Q  E Q  E Q  E
		|------2--2------0----|----------------0-----|
		|------0--0---------3-|------3--3---------0--|
		|---------------------|------2--2------------|
		|----0---------0------|----0---------0-------|
		|---------------------|----------------------|
		|-3---------3---------|-2---------2----------|
			 It'd be so nice,        if you


		  Q  E Q  E Q  E Q  E   Q  E Q  E Q  E Q  E
		|------2--2------0----|----------------------|
		|------0--0---------3-|------3--3------3-----|
		|---------------------|------2--2------2--0--|
		|----0---------0------|----0---------0-------|
		|---------------------|----------------------|
		|-3---------3---------|-2---------2----------|
		  weren't here		             Empty air,

		  Q  E Q  E Q  E Q  E   Q  E Q  E   S E. E Q  E
		|------2--2------0----|-----------|-------------|
		|------0--0---------3-|---------3-|--------3----|
		|---------------------|------2----|------2----2-|
		|----0---------0------|----0------|-------------|
		|---------------------|-----------|-0h2---------|
		|-3---------3---------|-2---------|-------------|
			    where you used to stand

		  Q  E Q  E   Q  E Q  E   Q  E Q  E   Q  E Q  E
		|-----------|------0----|-----------|------0----|
		|------3--3-|------3--3-|------3--3-|------3--3-|
		|------0--0-|------0--0-|------0--0-|------0--0-|
		|-----------|-----------|-----------|-----------|
		|----2------|----2------|----2------|----2------|
		|-0---------|-0---------|-0---------|-0---------|
			      Like an empty plate,

		  Q  E Q  E   Q  E Q  E   Q  E Q  E   Q  E E E E
		|-----------|-----------|-----------|------0-----|
		|------3----|------3----|------3--3-|--------3---|
		|------0----|----2------|------0--0-|----------0-|
		|-----------|-----------|----0------|----0-------|
		|----2------|-----------|-----------|------------|
		|-0-------0-|-2-------2-|-3---------|-3----------|
 		       that gets bussed away

-----------------------------------------------------------------------------------------
[6-Instrumental: Lapsteel+Git+Drums]

		  Q  E Q  E Q  E Q  E   Q  E Q  E Q  E Q  E
		|------2--2------2----|----------------------|
		|------0--0------0----|------5--5------5--3--|
		|------0--0------0----|------0--0------0--0--|
		|----4---------4------|----4---------4-------|
		|-------------------0-|-3---------3----------|
		|-0---------0---------|----------------------|


		  Q  E Q  E   Q  E Q  E   Q  E Q  E   Q  E Q  E
		|-----------|-----------|-----------|-----------|
		|------3--3-|------3--3-|------3--3-|------3--3-|
		|------0--0-|------0--0-|------0--0-|------0--0-|
		|----0------|----0------|----0------|----0------|
		|-----------|-----------|-----------|-----------|
		|-3---------|-3---------|-3---------|-3---------|


		  Q  E Q  E Q  E Q  E   Q  E Q  E Q  E Q  E
		|------2--2------2----|----------------------|
		|------0--0------0----|------5--5------5--3--|
		|------0--0----4------|------0--0------0--0--|
		|----4----------------|----4---------4-------|
		|-------------------0-|-3---------3----------|
		|-0---------0---------|----------------------|


		  Q  E Q  E   Q  E Q  E   Q  E Q  E   Q  E Q  E
		|-----------|-----------|-----------|-----------|
		|------3----|---------3-|------3--3-|---------0-|
		|------0----|------2----|------0--0-|-----------|
		|----0------|----0------|-----------|------2----|
		|-----------|-----------|----2------|----2------|
		|-3-------3-|-2---------|-0---------|-0---------|


		  Q  E Q  E Q  E Q  E   Q  E Q  E   Q  E Q  E   Q  E Q  E   Q  E Q  E
		|---------------------|-----------|-----------|-----------|--------------|
		|------5--5------5--3-|------3----|------3----|------3--3-|------3-------|
		|------0--0------0--0-|------0--0-|----2----2-|------0--0-|---------0----|
		|----4---------4------|----0------|-----------|-----------|--------------|
		|-3---------3---------|-----------|-----------|----2------|----2---------|
		|---------------------|-3---------|-2---------|-0---------|-0------------|


		  Q  E Q  E Q  E Q  E   Q  E Q  E   Q  E Q  E   W
		|---------------------|-----------|-----------|------|
		|------5--5------5s=3-|------3----|------3----|-0----|
		|------0--0------0----|------0----|----2------|-0----|
		|----4---------4------|----0------|-----------|-2----|
		|-3---------3---------|-----------|-----------|-2----|
		|---------------------|-3-------3-|-2-------2-|-0----|

-----------------------------------------------------------------------------------------|
-----------------------------------------------------------------------------------------|
wenn man mir schreiben mag usw:
if you want to write to me etc:
benny:
der.schoenste.tag@gmx.net
-----------------------------------------------------------------------------------------|
-----------------------------------------------------------------------------------------|
Comments