Jim Croce - These Dreams Chords & Tabs

 

These Dreams Chords & Tabs

Jim Croce Chords & Tabs

Version: 1 Type: Tab 0 ratings
1 star 2 stars 3 stars 4 stars 5 stars
comments

These Dreams Tab

Date: Monday, 20.09.2004
Tabbed by Peter Tuyp(peter.tuyp@wxs.nl)

subject: Jim Croce - These dreams

Intro:
 Gtr 1
|-----1-----------------------0---------------------1-0h1p0-----------|
|-------------3-------3---------3-2---3---5---8-------------3---------|
|---2---2---2---2---0---0---0-------0---0---0---0-------------2-------|
|-0-----------------------------------------------0-------------3-2-0-|
|---------3-------1---------------0---2---4---7-----------------------|
|-------------------------3-------------------------------------------|

 Gtr 2
|-------0-1-----------------------0---1---3---0---1--------5/8--10--8-|
|-----3-------3-------3-------3---2---3---5---2---3-----6-------------|
|---2-------2---2---3---3-0---------------------------7---------------|
|-0-----------------------0-----------------------0-------------------|
|-----------------1---------------0-----------------------------------|
|---------------------------------------------------------------------|


 Gtr 1
|-----------------1---0-----------1---0-------------------0--------------|
|-----3-------3-----------3---------------3-------3-3-------3-2h3p2--0h2-|
|---0---0---0---0---0---0---0---0---0---0---0----------0-----------------|
|-----------------0---------------0--------------------------------------|
|-1-------------------3---1-----------3---1---------0--------------------|
|---------3-------------------3----------------3-------------------------|

 Gtr2
|-6---3-5-6---3---1---0h1-----0h1-1---3---5---10-10------10--9h10p9------|
|---3-------3---3---3-----3---------3-------3---------10----10------10S8-|
|-0-------0-----------------0-----------0-----------9--------9-----------|
|-----------------0---------------0-------0------------------------------|
|---------------------3---1---3-------3-----------0----------------------|
|------------------------------------------------------------------------|


 Gtr1
|-----1-------1---------------0---------------------1-0h1p0-----------|
|-----3-------3-------3---------3-2---3---5---8-------------3---------|
|---2---2---2---2---0---0---0-------0---0---0---0-------------2-------|
|-0-----------------------------------------------0-------------3-2-0-|
|---------3-------1---------------0---2---4---7-----------------------|
|-------------------------3-------------------------------------------|
Verse 1:   Once we were lovers  but somehow things have changed
Verse 2:   Once we were lovers  but that was long ago
Instrumental:
 Gtr 2
|-------0-1-----------------------0---1---3---0---1---------5/8--10--8-|
|-----3-------3-------3-------3---2---3---5---2---3------6-------------|
|---2-------2---2---3---3-0---------------------------7----------------|
|-0-----------------------0-----------------------0--------------------|
|-----------------1---------------0------------------------------------|
|----------------------------------------------------------------------|


 Gtr 1
|-----------------1---0-----------1---0-------------------0--------------|
|-----3-------3-----------3---------------3-------3-3-------3-2h3p2--0h2-|
|---0---0---0---0---0---0---0---0---0---0---0----------0-----------------|
|-----------------0---------------0--------------------------------------|
|-1-------------------3---1-----------3---1---------0--------------------|
|---------3-------------------3----------------3-------------------------|
     Now we're just lonely peolple trying to forget eachother's names
     We lived together then and now we do not even say hello

 Gtr 2
|-6---3-5-6---3---1---0h1-----0h1-1---3---5---10-10------10--9h10p9------|
|---3-------3---3---3-----3---------3-------3---------10----10------10S8-|
|-0-------0-----------------0-----------0-----------9--------9-----------|
|-----------------0---------------0-------0------------------------------|
|---------------------3---1---3-------3-----------0----------------------|
|------------------------------------------------------------------------|
[ Tab from: http://www.guitartabs.cc/tabs/j/jim_croce/these_dreams_tab.html ]
 Gtr 1
|-----------------1---0-----------1---0-------------------0--------------|
|-----3-------3-----------3---------------3-------3-3-------3-2h3p2--0h2-|
|---0---0---0---0---0---0---0---0---0---0---0----------0-----------------|
|-----------------0---------------0--------------------------------------|
|-1-------------------3---1-----------3---1---------0--------------------|
|---------3-------------------3----------------3-------------------------|
     Now we're just lonely peolple trying to forget eachother's names
     We lived together then and now we do not even say hello 
 
 Gtr 2
|-----5---6---0---1---0h1-----0h1-1---3---5---10-10------10--9h10p9------|
|---3-------3-------3-----3---------3-------3---------10----10------10S8-|
|-0-----0-------------------0-----------0-----------9--------9-----------|
|-----------------0---------------0-------0------------------------------|
|---------------------3---1---3-------3-----------0----------------------|
|------------------------------------------------------------------------|


Chorus:
 Gtr 1
|-----2-------2-------0---------------2-------2-------2-------2---|
|-----3-------3---------3-3---2-------3-------3-------3-------3---|
|---2---2---2---2---0-------0---0---2---2---2---2---2---2---2-----|
|-0---------------2---------------0-----------------------------0-|
|---------2---------------0---------------4-------2-------0-------|
|-----------------------------------------------------------------|
            What came between us? Maybe we were just to young to know
 Gtr 2
|-2-----2-0-----------0-3-5-----0-2-------0-----0-------0-------0-|
|-----3---0---3---------------2-------3-------3---3---3---3---3---|
|---2-------0---0---0-------2-------2---2---0-------0-------0-----|
|-----------------2-----------------------2-----------------------|
|-------------------------0---------------------------------------|
|-----------------------------------------------------------------|


 Gtr 1
|-----3-------0-------0-------0-----0---------0---|
|-----0-------0-------3-------3-----3-----0h2---2-|
|---0---0---2---2---0---0---0-----0-----0---------|
|-------------------------------2-----2-----------|
|-------------------------0---------------0-------|
|-3-------2-------0-------------------------------|
     But now and then I feel the same                                                                  
 Gtr 2
|-----3-7-----7-------3---5-----5-------5-------5-|
|---3-------7---7---3---3-----5-------5-------5---|
|-0-------------------------7-------7-----6-------|
|---------4-------2---------------7---------------|
|-------------------------0-----------------------|
|-------------------------------------------------|


 Gtr 1
|---------------------2----------2----------2-------2---|
|-3S5---5-------------3----------3----------3-------3---|
|------------------2-----2----2----2------2---2---2---2-|
|-------------0-----------------------------------------|
|-2S4---4-------------------4-----------2-------0-------|
|-------------------------------------------------------|
       And some times at night I think I hear you calling my name 
 Gtr 2
|-----7-----9---------10---------9----------7---------5-|
|------------------10---------10---10-----8---8---5h7---|
|-6S7---7S9---9S11-------11-9---------9-7-------7-------|
|-------------------------------------------------------|
|-------------------------------------------------------|
|-------------------------------------------------------|


 Gtr 1
|-----3-------0-------0-----0-------0---------0-2-----2---|
|-----0-------0-------0-----0---0-----3---2-3---------3---|
|---0---0---2---2---0-----0-------------2-----------2---2-|
|-----------------------2-------------------------0-------|
|-----------------------------2---0-------0---------------|
|-3-------2-------0---------------------------------------|
  Mm, mm, mm, these dreams they keep me goin'these days
 Gtr 2
|-----7-------7-----7---7---------5---0-5-----0---2-----2-|
|---8---8---8-----8---8-----8---8---3-----2-3---3-----3---|
|-9-------7-----7-------------9---------------------2-----|
|---------------------------------------------------------|
|---------------------------------------------------------|
|---------------------------------------------------------|


 Gtr 1
|-------------0---------------2---------------0-----------|
|---------------3-3---2-------3-----------------3-3---2---|
|-----------0-------0---0---2---2-----------0-------0---0-|
|-----0-------------------0-----------0-------------------|
|-0h2---2---------0---0-----------0h2---2---------0---0---|
|---------0-------------------------------0---------------|

 Gtr 2
|-----5-------7---5-----0-2-----2-----5-------7---5-----0-|
|-5h7---7-8-----8-----2-------3---5h7---7-8-----8-----2---|
|-----------9-------2-------2---------------9-------2-----|
|---------------------------------------------------------|
|---------------------------------------------------------|
|---------------------------------------------------------|


Outro:
 Gtr 1
|---1-------3-----5-3-5-|
|-----3-------5---3-2-7-|
|---------5-------3-2-7-|
|-0---------------------|
|-----------------------|
|-----------------------|

 Gtr 2
|-1-------------0-5-3-2-|
|---3---------1---3-2-3-|
|-----2-----0-----3-2-2-|
|-------0---------------|
|---------3-------------|
|-----------------------|
Comments