Jezebel - Christianity Aint Kool Chords & Tabs

 

Christianity Aint Kool Chords & Tabs

Jezebel Chords & Tabs

Version: 1 Type: Tab 0 ratings
1 star 2 stars 3 stars 4 stars 5 stars
comments

Christianity Aint Kool Tab

Tuning - Drop D

ok so all those jezebel lovers out there, here that song u juss couldn't figre out


Booom....... Christianity ain't kool

-0-----
-0-----
-0-----
-0-----
-0-----
-1-----

ok here the verse

---77880----00100----85556--
---77--00-----1------8------
---77880------1------855----
---77---------1------855----
---77---------1------8------
---77-------00100----85556--
[ Tab from: http://www.guitartabs.cc/tabs/j/jezebel/christianity_aint_kool_tab.html ]
slave burn, but rach; u know u like me really..
and u kow why because christianity ain't kool..

and here the chorus
this is muted wid and playd very fast

--12-12-12-9-9-7---
--12-12-12-9-9-7---
--10-10-10-7-7-5---
-------------------
-------------------
-----------------0-

burn eternal bitch from satians paridise, and feel how
awfulgoodness tastes..........

any comments on this ask the fat man david, its his band



Comments