Jewel - You Were Meant For Me Live Chords & Tabs

 

You Were Meant For Me Live Chords & Tabs

Jewel Chords & Tabs

Version: 1 Type: Bass Tab 0 ratings
1 star 2 stars 3 stars 4 stars 5 stars
comments

You Were Meant For Me Live Bass Tab

NOTE: This is the version of the CD "Live at Letterman".

"You were meant for me" by Jewel
Bass part by Michael Balzary (Flea). He was a guest bassist on the show what Jewel did 
Flea's bassline is CLEARLY different, and on the CD it credits him as the bassist.
Tabbed by Dan Bogosian (UtBDan)
Visit UtBDan's band at:
http://www.geocities.com/underthbed/


Verse 1

G ----5-4----4-5----5h9----9---9-|
D -------------------------------|
A --3----------------------------|
E -------------------------------|

G -5-4----4-5----5h9------|
D ------------------------|
A ------------------------|
E ------------------------|

Chorus 1

G -----------------7--------|
D ---------------7----7--5--|
A -3-3----2-3--5------------|
E --------------------------|

G ------------------------|
D --5---3-5-3--2----2-2-0-|
A ------------------------|
E ------------------------|

G -------------7-------|
D -----------7---7--5--|
A -3-3----5------------|
E ---------------------|

G ------------------------|
D --5---3-5-3--2----2-2-0-|
A ------------------------|
E ------------------------|

G -------------7------19-17-15-12-9-7-5-|
D -----------7--------------------------|
A -3-3----5-----------------------------|
E --------------------------------------|

Verse 2

G --------------------------------7---------|
D ------------------------------------------|
A --3--15-14--2--14-15--3--15-14-----0-1-2--|
E ------------------------------------------|

G --------------------------------7---------|
D ------------------------------------------|
A --3--15-14--2--14-15--3--15-14-----0-1-2--|
E ------------------------------------------|

Chorus 2

G -----------------7h9p7---|
D ---------------7---------|
A -3-3----2-3--5-----------|
E -------------------------|

G ------------------------|
D --5---3-5-3--2----2-2-0-|
A ------------------------|
E ------------------------|

G -----------------|
D -----------7--55-|
A -3-3----5--------|
E -----------------|
[ Tab from: http://www.guitartabs.cc/tabs/j/jewel/you_were_meant_for_me_live_btab.html ]
G ------------------------|
D --5---3-5-3--2----2-2-0-|
A ------------------------|
E ------------------------|

G -----5----7h9p7------12-9-7-5-----|
D ---5----7-------------------------|
A -3----5----------3----------------|
E ----------------------------------|

G ------5----7----------5---------|
D -----5----7---7-----------------|
A 33-------5-----5--3-----5---3-2-|
E --------------------------------|

G ---------|
D ---5--5--|
A -3---3---|
E ---------|

Verse 3

G -5---5-4----4-5----5h9----9---9--|
D ---------------------------------|
A ---------------------------------|
E ---------------------------------|

G --5---------4---------5---------7---------|
D ------------------------------------------|
A -----15-14-----14-15-----15-14-----0-1-2--|
E ------------------------------------------|

G --5---------4---------5---------7---------|
D ------------------------------------------|
A -----15-14-----14-15-----15-14-----0-1-2--|
E ------------------------------------------|

G --------------------------------7---------|
D ------------------------------------------|
A --3--15-14--2--14-15--3--15-14-----0-1-2--|
E ------------------------------------------|

Chorus 3

G -----------------7h9p7--|
D ---------------7--------|
A -3-3----2-3--5----------|
E ------------------------|

G ------------------------|
D --5---3-5-3--2----2-2-0-|
A ------------------------|
E ------------------------|

G -----------7-----|
D --------------55-|
A -3-3----5--------|
E -----------------|

G ------------------------|
D --5---3-5-3--2----2-2-0-|
A ------------------------|
E ------------------------|

G -----5-----------12-9-7-5-7-5-|
D ---5--------------------------|
A -3----5-5----3----------------|
E ------------------------------|

G -------------------------------------------17--|
D -----------------------------------------------|
A 3----5-7h5---3--15-14--2--14-15--3--15-14------|
E -----------------------------------------------|


Thanks. CHECK OUT MY OTHER TABS!!! Rate highly. Please. lol
Comments