Jewel - You Were Meant For Me Chords & Tabs

 

You Were Meant For Me Chords & Tabs

Jewel Chords & Tabs

Version: 1 Type: Bass Tab 0 ratings
1 star 2 stars 3 stars 4 stars 5 stars
comments

You Were Meant For Me Bass Tab

Artist:Jewel
Song:You Were Meant For Me
Tabbed By:Gary Hricewich
E-mail:snapper2001@msn.com
[ Tab from: http://www.guitartabs.cc/tabs/j/jewel/you_were_meant_for_me_btab.html ]
                                                 
 Intro/No Bass           Bass Intro        2x         
G---------------|-------|---------|-----------|
D---------------|-------|*--------|----------*|
A---------------|-12\---|*-2------|-1--------*|
E---------------|-------|---------|-----------|
                                                 
                                                     
    Verse   3x                  3x    
G---|----------|--------|----------|--------|-------|
D---|*--------*|--------|*--------*|--------|-------|
A---|*-2--2-1-*|-2--2-4-|*-2--2-1-*|-2--2-4-|---4-3-|
E---|----------|--------|----------|--------|-------|
                                                     
                                          
    Chorus            2x
G---|---------|----------|-----|-----|---|
D---|*--------|-----1---*|-----|-----|-1-|
A---|*-2--2-4-|---------*|-2---|-4---|---|
E---|---------|-2-1------|-----|-----|---|
                                          
    Verse
    Chorus                                      
                                                     
                                                  
  Bridge                                 Stop
G----------|-----------|--------|--------------|
D----------|-----------|--------|--------------|
A--------4-|-1--1-4--1-|------4-|-1------------|
E---4--4---|-----------|-4--4---|--------------|
                                                  
     Bass Intro 4x
     Verse
     Chorus                                             
                                                 
                                    
 End Of Song 
G------|-----|-----|-----|-----|---|
D------|-----|-----|-----|-----|-1-|
A---2--|-4---|-2---|-1---|-2---|---|
E------|-----|-----|-----|-----|---|
Comments