Jewel - Standing Still Chords & Tabs

 

Standing Still Chords & Tabs

Jewel Chords & Tabs

Version: 3 Type: Tab 0 ratings
1 star 2 stars 3 stars 4 stars 5 stars
comments

Standing Still Tab

Jewel "Standing Still"
Tabbed By: James Huynh
e-mail;Jameshuynh02@hotmail.com
any questions or ideas


[ Tab from: http://www.guitartabs.cc/tabs/j/jewel/standing_still_tab_ver_3.html ]
e----------2-2-2-2-2----------0-0-0-----2-2-2-2-2-2-2
B----------3-3-3-3-3----------2-2-2-----3-3-3-3-3-3-3
G----------4-4-4-4-4----------2-2-2-----2-2-2-2-2-2-2
D----------4-4-4-4-4----------2-2-2-----0-0-0-0-0-0-0
A----------2-2-2-2-2----------0-0-0------------------
E----------------------------------------------------

fill
e|------------------7-----5------2--------------------------
B|----------------------------------------------------------
G|----------------------------------------------------------
D|-----4----------------------------------------------------
A|---2----2-------------------------------------------------
E|----------------------------------------------------------
Comments