Jewel - Standing Still Chords & Tabs

 

Standing Still Chords & Tabs

Jewel Chords & Tabs

Version: 2 Type: Tab 0 ratings
1 star 2 stars 3 stars 4 stars 5 stars
comments

Standing Still Tab

   
Chorus/Verse:
e|--2-2-2-2-2-2-2-2---0-0-0---2-2-2-2-2-2-2--|
B|--3-3-3-3-3-3-3-3---2-2-2---3-3-3-3-3-3-3--|
G|--4-4-4-4-4-4-4-4---2-2-2---2-2-2-2-2-2-2--|
D|--4-4-4-4-4-4-4-4---2-2-2------------------|
A|--2-2-2-2-2-2-2-2---0-0-0------------------|
E|-------------------------------------------|
[ Tab from: http://www.guitartabs.cc/tabs/j/jewel/standing_still_tab_ver_2.html ]
Struming:
x24432 -> D ~ U D U D D ~ D D
x02220 -> D U D
xxx232 -> D ~ U D U D ~ U D U D (2x)

Fill:
e|------------7----5----2--|
B|--7----------------------|
G|--------7----------------|
D|-----7-------------------|
A|-------------------------|
E|-------------------------|

Legend:
~ = Little Pause
D = Down
U = Up
x = Don't Strum
Comments