Jewel - Hands Chords & Tabs

 

Hands Chords & Tabs

Jewel Chords & Tabs

Version: 3 Type: Tab 0 ratings
1 star 2 stars 3 stars 4 stars 5 stars
comments

Hands Tab

   
Jewel - Hands

tabbed by: deezed

*Put variations in your plucking

Intro:

E|--------------------------- |---------------------8-|--------------------------|-----------------|
B|----------9------------- -8-|-----------------------|---------9--------------8-|-----------------|
G|-------10---10-------- 10---|------8-10---------10--|------10---10--------10---|------8-10-------|
D|----10---------10---10------|---10------10---10-----|---10---------10---10-----|---10------------|
A|--8---------------8---------|-8------------8--------|-8---------------8--------|-8---------------|
E|----------------------------|-----------------------|--------------------------|-----------------|

Verse:

   Fm                            C#                      G#                        D#
E|--------------------------- |-----------------------|--------4-----------3-----|---------6-------|
B|----------9------------- -8-|-------6-----------5---|------4---4-------4-------|-----------8-----|
G|-------10---10-------- 10---|-----6---6-------6-----|----5-------5---5---------|------8----------|
D|----10---------10---10------|---6-------6---6-------|--6-----------6-----------|----8------------|
A|--8---------------8---------|-4-----------4---------|--------------------------|--6--------------|
E|----------------------------|-----------------------|--------------------------|-----------------|

[ Tab from: http://www.guitartabs.cc/tabs/j/jewel/hands_tab_ver_3.html ]
Fm                         C#
If I could tell the world just one thing
         G#                D#
It would be that we're all OK
Fm                        C#     
And not to worry 'cause worry is wasteful
     G#                      D#
And useless in times like these
Fm                 C#
I won't be made useless
G#                     D#
I won't be idle with despair
 Fm                     C#
I will gather myself around my faith
      G#                          D#
For light does the darkness most fear

Chorus:
G#   D#       Bbm
My hands are small, I know 
      G#          D#         C#
But they're not yours, they are my own
      G#          D#         Bbm
But they're not yours, they are my own 
   G#     D#     Fm
And I am never broken

Poverty stole your golden shoes
But it didn't steal your laughter
And heartache came to visit me
But I knew it wasn't ever after
We'll fight, not out of spite
For someone must stand up for what's right
'Cause where there's a man who has no voice
There ours shall go singing 

Repeat Chorus

Bridge:
G#         D#   Fm                     C#
In the end only kindness matters
G#        D#    Fm                     C#
In the end only kindness matters
Fm                    C#                   G#              D#
I will get down on my knees, and I will pray
Fm                    C#                   G#              D#
I will get down on my knees, and I will pray
Fm                    C#                   G#              D#
I will get down on my knees, and I will pray


Repeat Chorus 2x then
G#             D#       Fm
We are never broken

Outro

Fm   C#   for whole outro

We are God's eyes
God's hands
God's mind
We are God's eyes
God's hands
God's heart
We are God's eyes
God's hands
God's eyes
We are God's hands
We are God's hands
Comments