Jett Joan - I Love Rock N Roll Chords & Tabs

 

I Love Rock N Roll Chords & Tabs

Jett Joan Chords & Tabs

Version: 3 Type: Tab 1 rating
1 star 2 stars 3 stars 4 stars 5 stars
comments

I Love Rock N Roll Tab

Hey guys...sorry...I've only figured out the chorus so far...but you will find that it's very accurate...

Start this as soon as you here the word "I" in the line "I love rock'n roll..."
[ Tab from: http://www.guitartabs.cc/tabs/j/jett_joan/i_love_rock_n_roll_tab_ver_3.html ]
---------------------------------------------|
---------------------------------------------|
---------------------------------------------|
-------------2-2--4-4---------------9-9--9-9-|
-2-2--2-2----0-0--2-2--2-2--2-2-----7-7--7-7-|
-0-0--0-0-3~-----------0-0--0-0-3~--0-0--0-0-|

---------------|
---------------|
---------------|
-----------9-9-|
-7-7--9-9--7-7-|
-5-5--7-7--0-0-|
Comments