Jett Joan - I Love Rock N Roll Chords & Tabs

 

I Love Rock N Roll Chords & Tabs

Jett Joan Chords & Tabs

Version: 1 Type: Tab 1 rating
1 star 2 stars 3 stars 4 stars 5 stars
comments

I Love Rock N Roll Tab

Title: I love rock n roll

Aritst: Joan Jett

Tabbed by: Ed

Chorus:
|-------------------------------------------------------------------|
|-------------------------------------------------------------------|
|-------------------2-2---------------------------------------------|
|-2-2---2-2---------2-2----4-4--------------------------------------|
|-2-2---2-2---------0-0----4-4--------------------------------------|
|-0-0---0-0----3-----------2-2---3----------------------------------|
[ Tab from: http://www.guitartabs.cc/tabs/j/jett_joan/i_love_rock_n_roll_tab.html ]
|-------------------------------------------------------------------|
|-------------------------------------------------------------------|
|-------------------2-2---------------------------------------------|
|-2-2---2-2---------2-2----4-----2-----2--------2p0-----------------|
|-2-2---2-2---------0-0----4-----2-----2------------2---p0----------|
|-0-0---0-0----3-----------2--3--0-----0--------------------3-------|

Repeat for whole verse:
|---------------------------------------------------------------|
|---------------------------------------------------------------|
|---------------------------------------------------------------|
|-----------------------2-2---2-2-----2p0-----------------------|
|-----------------------2-2---2-2----------2--p0----------------|
|-----------------------0-0---0-0-----------------3-------------|

Comments