Jett Joan - I Love Rock And Roll Chords & Tabs

 

I Love Rock And Roll Chords & Tabs

Jett Joan Chords & Tabs

Version: 2 Type: Tab 3 ratings
1 star 2 stars 3 stars 4 stars 5 stars
comments

I Love Rock And Roll Tab

#----------------------------------PLEASE NOTE--------------------------------#
#This file is the author's own work and represents their interpretation of the#
#song. You may only use this file for private study, scholarship, or research.#
#-----------------------------------------------------------------------------#

Joan Jett

I Love Rock and Roll

by Brian S.

key :
 
% - rest

e-------------------------------------------------------|
b-------------------------------------------------------|
g------------------------------2--2-----4--4------------|
d---2--2---%---2--2------------2--2--%--4--4------------|
a---2--2-------2--2------------0--0-----2--2------------|
e---0--0-------0--0---3b(1/4)------------------3b(1/4)--|

e----------------------------------------------------|
b----------------------------------------------------|
g------------------------------2--2-----4--2---------|
d---2--2---%---2--2------------2--2--%--4--2--2--2---|
a---2--2-------2--2------------0--0-----2--0--2--2---|
e---0--0-------0--0---3b(1/4)-----------------0--0---|

           rake
e----------___----------------------------------------------|
b---------|--x|--15b--r15--12-------------------------------|
g----------x------------------14-12~~/----------------------|
d--9--9~---------2---0--------------------------------------|
a--7--7~-------------------2--0-----------------------------|
e--0--0~-------------------------0--------------------------|
					I saw him.....
			     rake	
e----------------------------------guitar-1----------------|
b-------------------------------x--15b--r15--12------------|
g-----------------------------x------------------14--12~~/-|
d--2--2---------------9--9----------2----0-----------------|
a--2--2---------------7--7-------guitar-2-----2---0--------|
e--0--0---------------0--0----------------------------0----|
        dancing....              

			     rake	
e----------------------------------guitar-1----------------|
b-------------------------------x--15b--r15--12------------|
g-----------------------------x------------------14--12~~/-|
d--2--2---------------9--9----------2----0-----------------|
a--2--2---------------7--7-------guitar-2-----2---0--------|
e--0--0---------------0--0----------------------------0----|			     
[ Tab from: http://www.guitartabs.cc/tabs/j/jett_joan/i_love_rock_and_roll_tab_ver_2.html ]
e---------------------|
b---------------------|
g--4--4---2--2--------|
d--4--4---2--2--2-----|
a--2--2---0--0--2-----|
e---------------0-----|
                ^ ring for 8 beats
Chorus :
e-------------------------------------------------------|
b-------------------------------------------------------|
g------------------------------2--2-----4--4------------|
d---2--2---%---2--2------------2--2--%--4--4------------|
a---2--2-------2--2------------0--0-----2--2------------|
e---0--0-------0--0---3b(1/4)------------------3b(1/4)--|
 I love rock and roll.        So put another...

e----------------------------------------------------|
b----------------------------------------------------|
g------------------------------2--2-----4--2---------|
d---2--2---%---2--2------------2--2--%--4--2-%%-2--2-|
a---2--2-------2--2------------0--0-----2--0----2--2-|
e---0--0-------0--0---3b(1/4)-------------------0--0-|
   					     Ow!	
  rake					  ___^^___
e---------------------------------|      /        \ 
b----x--15b--r15--12--------------|     /          \
g--x------------------14--12~~/---|    /            \
d---------------------------------|   /     	     \	
a---------------------------------|  /                \
e---------------------------------| / 		       \	
				   /____________________\ 
 				  /   w/ whammy bar...   \
				 /  dive bomb 1 1/2 steps \
 				/__    than return       __\ 
Solo :                             /____________________\
e---------------------------------/----------------------\---|
b----------------------------------------------------------|
g---------------------------------7~~~~~~~~~~~~~~~~~~~~~~--|
d---------------------------------6~~~~~~~~~~~~~~~~~~~~~~--|
a----------------------------------------------------------|
e--0--x--x--2b(1/2)-r2--2b(1/2)----------------------------|

 						   full	
e-------------------12------------------------------^------|
b-----------------------------12------------12--12b^-------|
g---------9--11b~~------11b~-------11-------9---9---h11----|
d-/9--11-------------------------------9h11----------------|
a----------------------------------------------------------|
e----------------------------------------------------------|

e----------------------------------------------------------|
b----------------------------------------------------------|
g-------9---9-9-9-9/-8-8-8-8/-6-6-6-6/-4-4-4-4/-2-2-2-2/---|
d--9h11----------------------------------------------------|
a----------------------------------------------------------|
e----------------------------------------------------------|

e----------------------------------------------------------|
b----------------------------------------------------------|
g-1-1-1-1/-------------------------------------------------|
d----------------------------------------------------------|
a----------------------------------------------------------|
e----------------------------------------------------------|

(2:35)
   ________tremolo__picking_____________
  /					\
e---------|----------|----------|----------|
b---------|----------|----------|----------|
g--9------|-----9----|------9---|----9.----|
d---------|----------|----------|----------|
a--7------|-----7----|------7---|----7.----|
e---------|----------|----------|----------|
Comments