Jets To Brazil - Starry Configurations Chords & Tabs

 

Starry Configurations Chords & Tabs

Jets To Brazil Chords & Tabs

Version: 1 Type: Tab 0 ratings
1 star 2 stars 3 stars 4 stars 5 stars
comments

Starry Configurations Tab

Jets to Brazil
Pale New Dawn
Four Cornered Night
Words and music by Blake Schwarzenbach

Drop D tuning

Intro
e----------------------------------------------|
B----------------------------------------------|
G-------------------4---------------------4----|
D--------0------4--------------0------4--------|
A----0--------2---2--------0--------2---2------|
D--0---0-----------------0---0-----------------|

e----------------------------------------------|
B----------------------------------------------|
G--------6--------6-4----------6--------6-4----|
D---------------4---------------------4--------|
A----0--------2------------0--------2----------|
D--0---0-----------------0---0-----------------|

Verse
e------------------------------------------|
B------------------------------------------|
G------------------------------------------|
D------------------------4-----------------|
A------------------------2-----------------|
D--0---------------------------------------|
   Starry configurations am just a receiver
   Divine recombinations am just a recordist

e-------------------------------|
B--3--------------3-------------|
G--2--------------4-------------|
D--0--------------4-------------|
A--0--------------2-------------|
D--0----------------------------|
   Receptionist - unhappy medium
   Receptionist - unhappy medium

Verse break
e----------------------------------------------|
B----------------------------------------------|
G-----------------4-2---------------------4----|
D--------0------4--------------0------4--------|
A----0--------2------------0--------2---2------|
D--0---0-----------------0---0-----------------|

Verse
Excellent accommodations am just a bellboy
Beautiful surroundings am just some gravel
Or peat moss, what have you
Or peat moss, what have you now?


Chorus
e-------------------------------------------------------|
B-------------------------------------------------------|
G--------------------------------7-7-7-7-7-7-12-11-9-7--|
D--4-4-4-4-4-4-8-8-8-8-8-8-8-8-8-x-x-x-x-x-x--x--x-x-x--|
A--4-4-4-4-4-4-8-8-8-8-8-8-8-8-8-5-5-5-5-5-5-10--9-7-5--|
D--4-4-4-4-4-4-8-8-8-8-8-8-8-8-8-0-0-0-0-0-0--0--0-0-0--|
   Why must you treat me like you do?

e---------------------------------|
B---------------------------------|
G---------------------------------|
D--4-4-4-4-4-4-8-8-8-8-8-8-8-8-8--|
A--4-4-4-4-4-4-8-8-8-8-8-8-8-8-8--|
D--4-4-4-4-4-4-8-8-8-8-8-8-8-8-8--|
   Don't you know it's all for you?


Intro (w/ slight variation)
e----------------------------------------------|
B----------------------------------------------|
G-------------------4---------------------4----|
D--------0------4--------------0------4---4----|
A----0--------2---2--------0--------2---2------|
D--0---0-----------------0---0-----------------|

Verse
Dear infatuation, you do not see me
Die here beside you in see-through obscurity
Governess, fancy less
We'll sound the alarm

Chorus
e--------------------------------------------------------|
B--------------------------------------------------------|
G---------------------------------7-7-7-7-7-7-12-11-9-7--|
D--4-4-4-4-4-4--8-8-8-8-8-8-8-8-8-x-x-x-x-x-x--x--x-x-x--|
A--4-4-4-4-4-4--8-8-8-8-8-8-8-8-8-5-5-5-5-5-5-10--9-7-5--|
D--4-4-4-4-4-4--8-8-8-8-8-8-8-8-8-0-0-0-0-0-0--0--0-0-0--|
   Drum up some simpleton for you
e---------------------------------|------------------------|
B---------------------------------|------------------------|
G---------------------------------|-7-7-7-7-7-7-7-7-7-7-7--| Play this part (D)
D--4-4-4-4-4-4--8-8-8-8-8-8-8-8-8-|-7-7-7-7-7-7-7-7-7-7-7--| Twice
A--4-4-4-4-4-4--8-8-8-8-8-8-8-8-8-|-5-5-5-5-5-5-5-5-5-5-5--|
D--4-4-4-4-4-4--8-8-8-8-8-8-8-8-8-|------------------------|
   To eat these apples from your    eyes


e------------------------------------------------------|
B------------------------------------------------------|
G--7---------------4-----7-----------------------------|
D--7---------------4-----7--------------------5---5--5-|
A--5---------------2-----5--------------------5---5--5-|
D---------------------------------------------5---5--5-|
   Emptiness fills room, Your love's bud goes full bloom
[ Tab from: http://www.guitartabs.cc/tabs/j/jets_to_brazil/starry_configurations_tab.html ]
e-----------------------------------------------------------|
B-----------------------------------------------------------|
G------------------7-7-7-7-9-11-----------------------------|
D--4-4-4-4-4-4-4-4-7-x-x-x-x--x-4-4-4-4-4-4-4-4-5-5-5-5-5-5-|
A--4-4-4-4-4-4-4-4-5-5-5-5-7--9-4-4-4-4-4-4-4-4-5-5-5-5-5-5-|
D--4-4-4-4-4-4-4-4-0-0-0-0-0--0-4-4-4-4-4-4-4-4-5-5-5-5-5-5-|
         You don't love me      Aren't thinking of me

e---------------------------------------------|
B---------------------------------------------|
G---------------------------0-------------0---|
D--------0-----4----------0-----------0-------|
A-----0-----------4---------------------------|
D--0--------4-----------5---------5-----------|
   Why am I waiting for yo - u to see I'm alive

Intro - 1x (only the first half)

Verse (this first part is palm muted lightly)
e------------------------------------------|
B------------------------------------------|
G------------------------------------------|
D------------------------4-----------------|
A------------------------2-----------------|
D--0---------------------------------------|
Storybook ending am just a ledger
Hardly worth a mention or the paper
e-------------------------------|
B-------------------------------|
G----------------------4--------|
D--0-------------------4--------|
A--0-------------------2--------|
D--0----------------------------|
   It's written on and cried upon
    And kissed once by wax

e--------------------------------------------------------|
B--------------------------------------------------------|
G---------------------------------7-7-7-7-7-7-12-11-9-7--|
D--4-4-4-4-4-4--8-8-8-8-8-8-8-8-8-x-x-x-x-x-x--x--x-x-x--|
A--4-4-4-4-4-4--8-8-8-8-8-8-8-8-8-5-5-5-5-5-5-10--9-7-5--|
D--4-4-4-4-4-4--8-8-8-8-8-8-8-8-8-0-0-0-0-0-0--0--0-0-0--|
But still you treat me like you do
e---------------------------------------|
B---------------------------------------|
G---------------------------------------|
D--4-4-4-4-4-4--8-8-8-8-8-8-8-8-8-------|
A--4-4-4-4-4-4--8-8-8-8-8-8-8-8-8---0---|
D--4-4-4-4-4-4--8-8-8-8-8-8-8-8-8---0---|
   With everything I've done for  you

Bridge
e----------------------------------------------------------------|
B----------------------------------------------------------------|
G----------------------------------------------------------------|
D------0-------0-------0-----------0-----0-------0---------------|
A----0---0---0---0---0---0-------------0---0---0---0-------------|
D--2-------4-------0-------0-2-4-5---2-------4-------4-5-7-5-4-2-|


Outro
e-------------------------------------------|
B-------------------------------------------|
G-------------------------------------------|
D--------0------------0--------0-------0----|
A-----0-----0-------0---0----0---0---0---0--|
D--2--------------4--------0-------0--------|
 PM-  -  -  -     - - - -  - - - - - - - - -
   Striking like a bird of prey
   Along your     notepad  now
e----------------------------------------------|
B----------------------------------------------|
G----------------------------------------------|
D---------0------------0----------0------------|
A------0-----0-------0---0------0---0----------|
D---2--------------4----------0-------2-4-5-7--|
 PM -  -  -  -     - - - -    - - - - - - - -
The only year that turns your way
e-------------------------------------------------------------------------|
B-------------------------------------------------------------------------|
G-----------------------------------------------7-7-7-7-7-7-7-7-9-9-11-11-|
D-5-5-5-5-5-5-5-5-5-5-5-5-2-2-2-2-2-2-2-2-2-2-2-7-7-7-7-7-7-x-x-x-x--x--x-|
A-5-5-5-5-5-5-5-5-5-5-5-5-2-2-2-2-2-2-2-2-2-2-2-5-5-5-5-5-5-5-5-7-7--9--9-|
D-5-5-5-5-5-5-5-5-5-5-5-5-2-2-2-2-2-2-2-2-2-2-2---------------------------|
  My dear diary:          it's just you and me tonight

e-------------------------------------------------------------|
B-------------------------------------------------------------|
G------------------7-7-7-7-9-11-------------------------------|
D--4-4-4-4-4-4-4-4-7-x-x-x-x--x-4-4-4-4-4-4-4-4-5-5-5-5-5-5-5-|
A--4-4-4-4-4-4-4-4-5-5-5-5-7--9-4-4-4-4-4-4-4-4-5-5-5-5-5-5-5-|
D--4-4-4-4-4-4-4-4-0-0-0-0-0--0-4-4-4-4-4-4-4-4-5-5-5-5-5-5-5-|
         You don't love me      Aren't thinking of me
         You don't love me      Aren't thinking of me tonight

e---------------------------------------------|
B---------------------------------------------|
G---------------------------------------------|
D---------------------------------------------|
A-----------4---------------------------------|
D--0--------4-----------5~--------------------|
   Why am I waiting for yo - u to see I'm alive
Comments