Jets To Brazil - Sea Anemone Chords & Tabs

 

Sea Anemone Chords & Tabs

Jets To Brazil Chords & Tabs

Version: 1 Type: Tab 0 ratings
1 star 2 stars 3 stars 4 stars 5 stars
comments

Sea Anemone Tab

------------------------------------------------------------------------------- 
                         SEA ANEMONE - Jets To Brazil 
------------------------------------------------------------------------------- 

h-hammer on 
p-pull off 

Dropped D tuning 

Intro: 2 times 
e|---------------------------------------| 
b|---------------------------7---5-------| 
g|---------------2-2---------6---4---2---| 
d|-2-2-----2h4p2-----2-4-4-4---2---2-----| 
a|-0-0-0-0-------------------------------| 
D|---------------------------------------| 

Verse: 
e|---------------------------------------------------------------------------| 
b|--------------------------------------------------------3------------------| 
g|------------------------------------------------------2---2----2-----------| 
d|------------------------------------------------------0-----0--2-----------| 
a|-----------------------------0---------------------------------0-----------| 
D|-----------------------------0---------------------------------------------| 
The curtain's a sea ... it sways to the slow breeze. 

e|-------------------------------------------------------------------------------------| 
b|------------------------------------------------------------3----------3-------------| 
g|----------------------------------------------------------2---2---4-----4------------| 
d|----------------------------------------------------------0-----0-4------4-----------| 
a|---------------------------0--------------------------------------2-------2----------| 
D|---------------------------0---------------------------------------------------------| 
I lie spread....at these things. Most of them are yours. And its so nice 

e|-------------------------------------------------------------------| 
b|----------------------------------------------------------3--------| 
g|----------------------------------------------------------2--------| 
d|----------------------------------------------------------0--------| 
a|------------2---------------------4--------------------------------| 
D|------------2---------------------4--------------------------------| 
sitting very still without those old shoes I could never fill. 

e|-------------------------------------------------------------------------| 
b|-------------------------7---5----------------------3-----3--------------| 
g|-------2-2-------2-------6---4---------2-2-------22--2--2--2--2----------| 
d|-2-2h4-------2h4---2-4-4---2-----2-2h4-------2h4--------0---0-2----------| 
a|-0---------0---------------------0---------0------------------0----------| 
D|-------------------------------------------------------------------------| 

e|-----------------------------------------------------------------------| 
b|-------------------------------------3-------------------------3-------| 
g|----------------------------2---------2----------------------2--2---2--| 
d|------------------------2h4--2-4-------0---------------------0--0-0-2--| 
a|--------------------------------------------------------------------0--| 
D|-----------------------------------------------------------------------| 
Starfish...daze. Staring at the stars through an ocean haze. 

e|-------------------------------------------------------------------| 
b|-----------------------------------------3-------------------------| 
g|--------------------2---------------------2------------------------| 
d|----------------2h4--2-4-------------------0-----------------------| 
a|-------------------------------------------------------------------| 
D|-------------------------------------------------------------------| 
Was I...upon. Burned out like a light bulb when you turned me on. 

e|--------------------------------------------0-----------------------------------------------|
b|-----------------3---------------------------3-------------------------------------3---3----|
g|---2----4---------4---------------------------2------------------------------------2----6---|
d|--2-2---4----------4------------------------------------4--------------------------0--------|
a|--0-0-0-2-----------------------------0-----------------4-----------------------------------|
D|--------------------------------------0-----------------4-----------------------------------|
And it's so nice sleeping here all alone with my ashtray, white courtesy telephone 
[ Tab from: http://www.guitartabs.cc/tabs/j/jets_to_brazil/sea_anemone_tab.html ]
e|-------------------------------------------------------------------| 
b|-----------------------------------------------------------3-------| 
g|-----------------------------------------------------------2-------| 
d|-2---------------------------------------------------------0-------| 
a|-2---------------0---------------4---------------------------------| 
D|-2---------------0---------------4---------------------------------| 
Now I'm...shapes. Like the shower rod, can it take my weight 

e|-------------------------------------------------------------------| 
b|------------------------------------------------------------3------| 
g|------------------------------------------------------------2------| 
d|------------------------------------------------------------0------| 
a|-2----------------0--------------4---------------------------------| 
D|-2----------------0--------------4---------------------------------| 
I will tell..fine. got some news friend, feels like I'm dying 

Bridge: (this is the part that's played over the intro) 4 times. 
e|--9-9-9-9-9-9-9-10-9-5-5-5-5-5-5-5-5-7-5---------------------------| 
b|-------------------------------------------------------------------| 
g|-------------------------------------------------------------------| 
d|-------------------------------------------------------------------| 
a|-------------------------------------------------------------------| 
D|-------------------------------------------------------------------| 

e|--------------------------------------------------------------------------------------| 
b|------------------------------------------------------------------------------3-------| 
g|----------------------------2-----------------------------------------------6---6---2-| 
d|-----------------------2h4------2----2--------------------------------------------4-2-| 
a|-------------------------------------2----------------------------------------------0-| 
D|--------------------------------------------------------------------------------------| 
Turtle ...sea. And you look like a cool drink, just slightly out of reach. 

e|-------------------------------------------------------------------| 
b|--------------------------------------3----------------------------| 
g|------------------2---------------------2--------------------------| 
d|--------------2h4----2--2-----------------0------------------------| 
a|------------------------0-------------------0----------------------| 
D|-------------------------------------------------------------------| 
Draw..shell, waiting on a sign from god or a nod from hell 

e|--------------------------------------------------------------------------| 
b|-------------------------3------------------------------------------------| 
g|------------4------------2----------------------------------------------7-| 
d|------------4------------0-----------------------4----------------------7-| 
a|------------2------------0-----------------------4----------------------5-| 
D|-------------------------------------------------4------------------------| 
And its so nice sitting very still without those old shoes i could never fill 

e|-------------------------------------------------------------------| 
b|-----------------------------------------------------------3-------| 
g|-----------------------------------------------------------2-------| 
d|-2---------------------------------------------------------0-------| 
a|-2---------------0---------------4---------------------------------| 
D|-2---------------0---------------4---------------------------------| 
Now we're...lights. Its the first day of my second life. 

e|-------------------------------------------------------------------| 
b|-------------------------------------------------------------------| 
g|--2----4-----------------------------------------------------------| 
d|-2-2---4-----------------------------------------------------------| 
a|-0-0-0-2-----------------0-----------------------------------------| 
D|-------------------------0-----------------------------------------| 
Take my name..lease ....suited me 

Then it just kind of mixes the intro with the bridge and a keyboard riff that you can 
play on the guitar as well and that's the end. 
Hope you like it. Email me with corrections/suggestions. 
-------------------------------------------------------------------------------
Comments