Jethro Tull - Wondering Aloud Chords & Tabs

 

Wondering Aloud Chords & Tabs

Jethro Tull Chords & Tabs

Version: 1 Type: Tab 0 ratings
1 star 2 stars 3 stars 4 stars 5 stars
comments

Wondering Aloud Tab

Gtr I (E A D G B E) - 'Ian Anderson - Rhythm Steel String Acoustic capo @ 3rd fret all
notes relative to capo'

Verses
    Q.=48
   6/8
    Gtr I
    S S E S S E S S E   E S S E S S S S S S   E S S S S E a S S S S
||------0-0-0-0-------|-0-0-0-0-------------|-----------------------|
||o-----1-1-1-1-------|-1-1-1-1-0h1---------|---1-1-1-0-0-----------|
||------0-0-0-0-------|-2-2-2-2-0h2-----0---|-0-0-0-0-0-0-----------|
||----2-2-2-2-2-------|-2-2-2-2-0h2-----0-0-|-0-0-0-0-0-0-----------|
||o-5---3-3-3-3-2-0---|-0-0-0-0-----0-2-3---|-----------2-0h2-0---0-|
||------------------3-|---------------------|-----------3-------3---|


  E S S S S E S S S S   S S S S S S E S S S S   S S E S S E S S S  S
|-2---------2-2-2-2-0-|-0-2-2-2-2-2-2-2-2-2---|-----0-0-0-0-----------|
|-3---------3-3-3-3-3-|-3-3-3-3-3-3-3-3-3-3---|-----1-1-1-1-----------|
|-2-2-4-0-2-2-2-2-2-2-|-2-2-2-2-2-2-2-2-2-2-0-|-----0-0-0-0-----------|
|-0-0---0---0-0-0-0-0-|-0-0-0-0-0-0-0-0-0-0-0-|---2-3-2-2-2-----------|
|---------------------|-----------------------|-3---3-3-3-3-2-0---(0)-|
|---------------------|-----------------------|-----------------3-----|


  E S S E S S S S S S   E S S S S E a S S S S   E S S S S E S S S S
|-0-0-0-0-------------|-----------------------|-2---------2-2-2-2-0-|
|-1-1-1-1-0h1---------|---1-1-1-1-0-----------|-3---------3-3-3-3-3-|
|-2-2-2-2-0h2-----0---|-0-0-0-0-0-0-----------|-2-2-4-0-2-2-2-2-2-2-|
|-2-2-2-2-0h2-----0-0-|-0-0-0-0-0-0-----------|-0-0---0---0-0-0-0-0-|
|-0-0-0-0-----0-2-3---|-----------2-0h2-0---0-|---------------------|
|---------------------|-----------3-------3---|---------------------|


  S S S S S S +S  S T T S S S   E S S S S E S S S S   S S S S S S E S S S S
|-0-2-------------------------|-2---------2-2-2-2-0-|-0-2-2-2-2-0-2-2-2-2---|
|-3-3-------------------------|-3---------3-3-3-3-3-|-3-3-3-3-3-3-3-3-3-3---|
|-2-2-------0-(0)-------------|-2-2-4-0-2-2-2-2-2-2-|-2-2-2-2-2-2-2-2-2-2-0-|
|-0-0-0-2-4-2-(2)-2-0h2p0---0-|-0-0---0---0-0-0-0-0-|-0-0-0-0-0-0-0-0-0-0-0-|
|-------------------------3---|---------------------|-----------------------|
|-----------------------------|---------------------|-----------------------|

[ Tab from: http://www.guitartabs.cc/tabs/j/jethro_tull/wondering_aloud_tab.html ]
  E S S E E S S S  S    E S S S S S S S S S S   S S E S S S S E S S
|-0-0-0---0-0-0-0-(0)-|-2-2-2-2-2-0-2-2-2-2---|-----3-3-3-----0-0-0--|
|-1-1-1---1-1-1-1-(0)-|-3-3-3-3-3-3-3-3-3-3-0-|-----0-0-0-----0-0-0--|
|-0-0-0---0-0-0-0-----|-2-2-2-2-2-2-2-2-2-2-0-|-----0-0-0-----0-0-0--|
|-2-2-2---2-2-2-2-----|-0-0-0-0-0-0-0-0-0-0---|-----0-0-0-----2-2-2--|
|-3-3-3-3-3-3-3-3-----|-----------------------|---2-2-2-2---2-2-2-2--|
|---------------------|-----------------------|-3---3-3-3-0---0-0-0--|


                                                            |-3-|
  E S S S S S S S S S S   E S S S S S S S S S S   E S S E E S S S S S
|-----------------------|-0-0-0-0-0-------------|-3-3-3---3-----------|
|-3-3-3-3-3-----3-3-3-0-|-0-0-0-0-0-------------|-0-0-0---0-----------|
|-2-2-2-2-2-0-2-2-2-2-0-|-0-0-0-0-0-------------|-0-0-0---0-----------|
|-0-0-0-0-0-0---0-0-0---|-2-2-2-2-2---2-------0-|-0-0-0---0-----------|
|-----------------------|-----------0-2-------2-|-2-2-2-2-2---------0-|
|-----------------------|---------------0-2-3---|-3-3-3---3-0h2p0-3---|


                       1.                         2.
  E S S S S E S S S S   S S S S S S E S S S S      S S S S S S E S S E
|-2---------2-2-2-2-0-|-0-2-2-2-2-0-2-2-2-2----||--0-2-2-2-2-0-2-2-2-2-||
|-3---------3-3-3-3-3-|-3-3-3-3-3-3-3-3-3-3---o||--3-3-3-3-3-3-3-3-3-3-||
|-2-2-4-0-2-2-2-2-2-2-|-2-2-2-2-2-2-2-2-2-2-0--||--2-2-2-2-2-2-2-2-2-2-||
|-0-0---0---0-0-0-0-0-|-0-0-0-0-0-0-0-0-0-0-0--||--0-0-0-0-0-0-0-0-0-0-||
|---------------------|-----------------------o||----------------------||
|---------------------|------------------------||----------------------||


 Outro
                                                      |-3-|
  E S S E E S S E   E S S S S S S E S S   E S S S S E S S S E   H.
|-1-1-1-1-0-0-0-0-|-3-3-3-3-3-------3-3-|---0-0---------------|-2-----*|
|-3-3-3-3-1-1-1-1-|-0-0-0-0-0-------0-0-|---0-0---------------|-3-----*|
|-2-2-2-2-0-0-0-0-|-0-0-0-0-0---0---0-0-|---0-0---------------|-2-----*|
|-0-0-0-0-2-2-2-2-|-0-0-0-0-0---0---0-0-|-2-2-2-0-2-2---------|-0-----*|
|---------3-3-3-3-|-2-2-2-2-2-0-2---2-2-|-2-2-2-0-2-2-0h2p0---|-------*|
|-----------------|-3-3-3-3-3-----3-3-3-|-0-0-0-----0-------3-|-------*|
Comments