Jethro Tull - Thick As A Brick Chords & Tabs

 

Thick As A Brick Chords & Tabs

Jethro Tull Chords & Tabs

Version: 2 Type: Tab 0 ratings
1 star 2 stars 3 stars 4 stars 5 stars
comments

Thick As A Brick Tab

   
#----------------------------------PLEASE NOTE---------------------------------#
#This file is the author's own work and represents their interpretation of the #
#song. You may only use this file for private study, scholarship, or research. #
#------------------------------------------------------------------------------#

This is the poet and the painter part 
of the essential Tull song THICK AS A BRICK
hope u like it


CAPO 3

play these cords during the awesome flute solo,
but you gotta listen to the song for timing    
    

    Em D Em D G Am Am4 B D Em D Em F# G C D


then there are the solos

play  Em D Em D Em D during the solos
[ Tab from: http://www.guitartabs.cc/tabs/j/jethro_tull/thick_as_a_brick_tab_ver_2.html ]
and:
 
e|----------------------------------------------------------|
B|----------13------------------------13--------------------|
G|--12--12------15--13-12-10--12--12------15--13-12-10------|
D|----------------------------------------------------------|
A|----------------------------------------------------------|
E|----------------------------------------------------------|


e|----------------------------------------------------------|
B|----------13------------------------13--------------------|
G|--12--12------15--13-12-10--12--12------15--13-12-10------|
D|----------------------------------------------------------|
A|----------------------------------------------------------|
E|----------------------------------------------------------|


e|--15--|
B|------|
G|--12--|

submitted by genco
for any corrections/improvements, e mail me
gencayk@turk.net

************************************************************************************************************************

Comments