Jethro Tull - Skating Away Chords & Tabs

 

Skating Away Chords & Tabs

Jethro Tull Chords & Tabs

Version: 1 Type: Tab 1 rating
1 star 2 stars 3 stars 4 stars 5 stars
comments

Skating Away Tab

   
#----------------------------------PLEASE NOTE---------------------------------#
#This file is the author's own work and represents their interpretation of the #
#song. You may only use this file for private study, scholarship, or research. #
#------------------------------------------------------------------------------##
#

Date: Thu, 21 Nov 1996 11:15:21 -0800 (PST)
From: "R. McPherson" 
Subject: TAB:  Skating Away (On The Thin Ice Of The New Day)by Jethro Tull


Thanks to help from storvik@ux4.cso.uiuc.edu we now have:

Title: Skating Away on the Thin Ice of the New Day
Artist: (Jethro Tull) Anderson/Barre?
Transcribed By: rjmcpher@uci.edu
Note: CAPO 3rd fret (written as though 3rd fret = open)
 
Add lots of rhythmic style to the chord playing 
from sus2 to major to sus4 forms.

Chord forms named as if played without a capo:

    F  D2 D  D4  D5  A  A2 A4   G   F2
e +-1--0--2---3---5--0--0--0----3---1-- 
G |-1--3--3---3---3--2--0--3----0---1--
B |-2--2--2---2---2--2--2--2----0---0--
D |-3--0--0---0---0--2--2--2----0---3--
A |-3 ---------------0--0--0----2---0--
E +-1----------------------------------

intro:                                     
   
E +-----------------------0-
G |-----------------------2-
B |-----0-----------------2-
D |---2-------------------2-
A |-3------2--0-----------0-
E +---------------3--1------

  
E +-----------------------2-
G |-----------------------3-
B |-----0-----------------2-
D |---2-------------------0-
A |-3------2--0-------------
E +---------------3--1------
[ Tab from: http://www.guitartabs.cc/tabs/j/jethro_tull/skating_away_tab.html ]
   '
E +-2---2--0--2-3---------------------3------3-----+
G |-3 --3 -3 -3 3--------------------(3)-----------| (optional?)
B |-2---2--2 -2-2----------------------------------|  
D |------------------------------------------------|
A |-------------------------------320-2--320-2-----|
E +-----------------------------------3------3-----+

 
E +1-------------------------1----------------------------+  strum 
G |1-------------------------1----------------------------|  chords
B |2-------------------------0----------------------------|  here
D |3-------------------------3----------------------------|
A |3 ------------------------0----------------------------|
E +1------------------------------------------------------+

   
E +0-2 2 0 2-3-2-0-0----------------0-0 0 0 0 0 0 0 0--------+
G |3-3-3-3-3-3-3-3-3----------------2-0 2-0 2 3 2 0 2--------| add 
B |2-2-2-2-2-2-2-2-2----------------2-2 2 2 2 2 2 2 2--------| rhythmic
D |---------------------------------2-2 2 2 2 2 2 2 2--------| style
A |---------------------------------0-0 0 0 0 0 0 0 0--------|
E +----------------------------------------------------------+

chorus:

  skating away 
  skating away
  skating away       on the thin
                         ice of the new day    ay e ay ay ay   
E +--------------------------------------3-----3-------2--2--+
G |----------------------------------------------------3--3--| add 
B |-4--2- 0--2--h2---  -----0-------- --- --- ---0-0- h2- 2--| style
D |-0- 0  0--0--- 0----0-2-4--4-2 0     - -  --   4 4--------|
A |----------------------------------320-2-320 2-------------|
E +--------------------------------------3-----3-------------+

verses: (note: D2-4 indicates D major to sus2 to sus4 etc..)

Comments