Jethro Tull - Minstrel In The Gallery Chords & Tabs

 

Minstrel In The Gallery Chords & Tabs

Jethro Tull Chords & Tabs

Version: 1 Type: Tab 0 ratings
1 star 2 stars 3 stars 4 stars 5 stars
comments

Minstrel In The Gallery Tab

   
#----------------------------------PLEASE NOTE---------------------------------#
#This file is the author's own work and represents their interpretation of the #
#song. You may only use this file for private study, scholarship, or research. #
#------------------------------------------------------------------------------##
From: tarvydas@turing.toronto.edu (Paul Tarvydas)
Date: 19 Jul 95 19:22:14 GMT
Subject: CRD: Jethro Tull, Minstrel in the Gallery (acoustic)


Minstrel in the Gallery acoustic portion
Ian Anderson
(transcribed by Paul Tarvydas tarvydas@tsctrl.guild.org)


capo 2nd fret

all chords relative to capo

/ = down strum

\ = up strum

o = all strings open (if preceding Dsus2, then strings 1-4 open,
    if preceding A, then strings 1-5 open, if preceding G, then 1-6
    open)

note: The last line "the friends he'd made" is a typical Andersonian
chord-morph.  You should play with the fingering until you find
a combination which moves the fewest fingers at one time.  Anderson
likes to keep one finger planted and change the chords around it.  In
this case, I think he does the following.  He plants the 3rd finger of
the left hand as he changes from Dm to A7sus4.  Am to C, he plants the
1st finger.  C to Cadd9 he lifts the 3rd and places 2nd on the 6th
string, keeping the 1st and 4th fingers planted.

[ Tab from: http://www.guitartabs.cc/tabs/j/jethro_tull/minstrel_in_the_gallery_tab.html ]
    A   Asus4   Am   A7sus4  C   Cadd9/F# Dsus2 Dsus4  Dm
-|--0-----0-----0-----0-----0-----0--------0-----3-----1-
-|--2-----3-----1-----3-----1-----1--------3-----3-----3-
-|--2-----2-----2-----0-----0-----0--------2-----2-----2-
-|--2-----2-----2-----2-----2-----0--------0-----0-----0-
-|--0-----0-----0-----0-----3-----3----------------------
-|--------------------------3-----2----------------------

    F     G        o-Dsus2  o-A      o-G
-|--1-----3--------0--0-----0--0-----0--3----------------
-|--1-----3--------0--3-----0--2-----0--3----------------
-|--2-----0--------0--2-----0--2-----0--0----------------
-|--3-----0--------0--0-----0--2-----0--0----------------
-|--3-----2-----------------0--0-----0--2----------------
-|--1-----3--------------------------0--3----------------



******************************************************************************************************************


Jethro Tull
Minstrel in the Gallery


Main Riff: 
E----------------------------------------- 
B-----------------------------0----------- 
G------------0----2-----4---4---2---0---2- 
D---0----2--------2---------------------2- 
A-----------------0---------------------0- 
E-----------------------------------------

E----------------------------------------- 
B----------------------------------------- 
G-------0-2--------0--2--0--2-4p2p0h2----- 
D---0-2-------0-2-----2--0--0------------- 
A-----------0---------0-------------------
E-----------------------------------------


Yost with the Most
Comments