Jethro Tull - Locomotive Breath Chords & Tabs

 

Locomotive Breath Chords & Tabs

Jethro Tull Chords & Tabs

Version: 2 Type: Tab

Locomotive Breath Tab

e:------------------------------|
b:------------------------------|
g:------------------------------| listen to the song to find out how often
d:-2-2-2--5--0--2---------------|  it comes
a:-2-2-2--5--0--2---------------|
e:----------------x-x-x-x-x-x-x-|

then
[ Tab from: http://www.guitartabs.cc/tabs/j/jethro_tull/locomotive_breath_tab_ver_2.html ]
e:-----------------------------------------------------|
b:-----------------------------------------------------|
g:-----------------------------------------------------|
d:-2-2-2--5--0-5--5--5--7--7--7--9--9--9-9---------0-2-|
a:-2-2-2--5--0-5--5--5--7--7--7--9--9--9-9-2-2-2-2-0-2-|
e:-----------------------------------------2-2-2-2-----|