Jethro Tull - Locomotive Breath Chords & Tabs

 

Locomotive Breath Chords & Tabs

Jethro Tull Chords & Tabs

Version: 1 Type: Tab 0 ratings
1 star 2 stars 3 stars 4 stars 5 stars
comments

Locomotive Breath Tab

b - bending
. - palm muting

e--------------------------------|
b--------------------------------|
g--------------------------------|
D-9-9----12--7--9----------------|
A-7-7----10--5--7----------------|
E------------------0-0-0-0-0-0-0-|
                   . . . . . . .

5x, then

e--------------------------------------------------------------|
b--------------------------------------------------------------|
g--------------------------------------------------------------|
D-9-9----12--7--4----------------4-4----4--7--9----------------|
A-7-7----10--5--2----------------2-2----2--5--7----------------|
E------------------0-0-0-0-0-0-0-----------------0-0-0-0-0-0-0-|
                   . . . . . . .                 . . . . . . .

e--------------------------------|
b--------------------------------|
g--------------------------------|
D-9-9----12--7--9----------------|
A-7-7----10--5--7----------------|
E------------------0-0-0-0-0-0-0-|
                   . . . . . . .
[ Tab from: http://www.guitartabs.cc/tabs/j/jethro_tull/locomotive_breath_tab.html ]
e---------------------------------------------------------------------|
b---------------------------------------------------------------------|
g---------------------------------------------------------------------|
D-9-9----12--7--12-12-12-12-12-12-12-12-14-14-14-14-14-14-14-14-4-----|
A-7-7----10--5--10-10-10-10-10-10-10-10-12-12-12-12-12-12-12-12-2-----|
E------------------------------------------------------0-0-0-0-0------|
                                                                  . . . . . . .

Second Guitar
e---------------14b-14--14b-14--14b-14--16b-16--16b-16--16b-16-----|
b------------------------------------------------------------------|
g------------------------------------------------------------------|
D------------------------------------------------------------------|
A------------------------------------------------------------------|
E------------------------------------------------------------------|

e----------------|
b----------------|
g----------------|
D-4-4----4--7--9-|
A-2-2----2--5--7-|
E----------------|
Comments