Jethro Tull - Intro To My God Chords & Tabs

 

Intro To My God Chords & Tabs

Jethro Tull Chords & Tabs

Version: 1 Type: Tab 0 ratings
1 star 2 stars 3 stars 4 stars 5 stars
comments

Intro To My God Tab

riff 1
|-----------|--------------------------------|-----------|
|-----------|--------------------------------|-----------|
|-----------|--------------------------------|-----------|repeat 9x(increase speed)
|--------7--|---7----7----7----7----7----7---|---5h7-----|
|----0------|-0----0----0----0-----0----0---0|-----------|
|-----------|--------------------------------|-----------|
 dont repeat
[ Tab from: http://www.guitartabs.cc/tabs/j/jethro_tull/intro_to_my_god_tab.html ]
riff 2
|----------------------------------|
|-------------5------------------0-|
|------5----0---0----5-----5/4---4-|
|--------7---------7-------------5-|
|---0-------------------0----------|
|----------------------------------|

riff 3
|----------------------------------|--------------------|
|----------------------------------|--------------------|
|---------------------2---------2--|-2/4----------------|
|----------------0-2-3-------3-----|-3/5----------5-----|
|---0---0---0-2-3------------------|--------------------|
|----------------------------------|--------------------|

riff4
|---------------------|--------------|
|--------------5---4--|--------------|
|--------------5---4--|--------------|repeat until chorus
|---7---7------7---7--|-----7--3---2-|
|---0-----0--------0--|---0------0---|
|---------------------|--------------|
Comments