Jethro Tull - Dun Ringill Chords & Tabs

 

Dun Ringill Chords & Tabs

Jethro Tull Chords & Tabs

Version: 2 Type: Tab 0 ratings
1 star 2 stars 3 stars 4 stars 5 stars
comments

Dun Ringill Tab

   
#----------------------------------PLEASE NOTE---------------------------------#
#This file is the author's own work and represents their interpretation of the #
#song. You may only use this file for private study, scholarship, or research. #
#------------------------------------------------------------------------------##
From: kinzel@ibr.cs.tu-bs.de (Jens Kinzel)
Subject: Jethro Tull TAB: DUN RINGILL


DUN RINGILL

(The way, I am used to play it)

Begin the song slowly and softly. When you have finished the
introduction you must have the feeling to be on the coast of Isle of Skye
with its celtic history.

v: strike strings from E->e
        ^: strike strings from e->E
        >: lay down your fingers

Capo at III
something's wrong!
|-----------------|
                      v ^  v    ^ v   ^ v ^ v ^ v ^    v ^ v ^ v  ^
e:|--------------------------|--0-0---0-0-----0-0-0-|--------0-0--0--|
h:|--1-------1-------------1-|--3-3---1-1-----1-1-1-|--------3-3--3--|
g:|----0---------0-----------|--2-2---2-2-----2-2-2-|--------2-2--2--|
D:|--------------------------|--2-2---2-2-----2-2-2-|--------0-0--0--|
A:|-3------2----------0------|----------------------|--2-----2-2--2--|
E:|--------------------------|----------------------|----------------|

        v ^ v ^ v ^    v ^ v ^ v ^   v ^ v ^ v ^   v ^ v ^ v ^   v ^  v ^ v ^   
e:|-0-----0-0-0--|-2-----2-2-2-|-0>2---2-2-2-|-0>2---2-2-2-|-3-3--2-2-0-0-
h:|-1-----1-1-1--|-3-----3-3-3-|-3-3---3-3-3-|-3-3---3-3-3-|-3-3--3-3-3-3-
g:|-0-----0-0-0--|-2-----2-2-2-|-0>2---3-3-3-|-0>2---3-3-3-|-2-2--2-2-0-0-
D:|-2-----2-2-2--|-0-----0-0-0-|-0-0---0-0-0-|-0-0---0-0-0-|-0-0--0-0-0-0-
A:|-3-----3-3-3--|-------------|-------------|-------------|--------------
E:|--------------|-------------|-------------|-------------|--------------

    wee hours I'll meet   you ...                            down by  Dun

    v ^ v ^ v ^    v ^ v ^ v ^   
e:|-0-----0-0-0--|-0-----0-0-0--|
h:|-1-----1-1-1--|-1-----1-1-1--|
g:|-0-----0-0-0--|-0-----0-0-0--|
D:|-2-----2-2-2--|-2-----2-2-2--| ... from beginning
A:|-3-----3-3-3--|-3-----3-3-3--|
E:|--------------|--------------|

    Ringill ....

[ Tab from: http://www.guitartabs.cc/tabs/j/jethro_tull/dun_ringill_tab_ver_2.html ]
End:
    v ^ v ^ v ^   v ^ v ^ v ^   v ^ v ^ v ^   v ^ v ^ v ^
e:|-------0-0-0-|-------0-0-0-|-------0-0-0-|-------0-0-0-|
h:|-------3-3-3-|-------3-3-3-|-------3-3-3-|-------3-3-3-|
g:|-------2-2-2-|-------0-0-0-|-------0-0-0-|-------0-0-0-|
D:|-------0-0-0-|-------0-0-0-|-------0-0-0-|-------0-0-0-|
A:|-2-----2-2-2-|-1-----1-1-1-|-1-----1-1-1-|-1-----1-1-1-|
E:|-------------|-------------|-------------|-------------|


slowly:

    ^
e:|-/-0-0-----|-----0--5-
h:|-\-3--3----|----1-----
g:|-/-0---0---|---2------
D:|-\-0----0--|--2-------
A:|-/-1-----1-|-0--------
E:|-----------|----------

(... please e-mail corrections)


************************************************************************************************************



From: Nikolai Ilinsky 
Subject: Dun Ringill TAB : Jethro Tull

Send corrections and questions to:
 
 To: niki@glas.apc.org
 Subject: For Peter Kabanov
 
Best regards.
   Peter Kabanov. Moscow, Russia.


DUN RINGILL

v: strike strings from E->e
        ^: strike strings from e->E

Capo at III

                      v ^  v    ^ v   ^ v ^ v ^ v ^    v ^ v ^ v  ^
e:|-------------------0----0-|--------2--0--------0--0-|
h:|-------------------1----0-|------3-3--3------3-3--1-|
g:|----2-----2---2----2----2-|----2---2--0----2---2--2-|And again this patrn
D:|--2------2---0-----0----0-|--0-----0--0--0-----0--0-|
A:|-0-----------------0----0-|-------------(0)---------|
E:|--------3---2-----(2)--(2)|-------------------------|

    C
    C              D                                         G

    v ^ v ^ v ^    v ^ v ^ v ^   v ^ v ^ v ^   v ^ v ^ v ^   v ^  v ^ v ^   
e:|-0-----0-0-0--|-2-----2-2-2-|-0>2---2-2-2-|-0>2---2-2-2-|-3-3--3-3-3-3-
h:|-1-----1-1-1--|-3-----3-3-3-|-3-3---3-3-3-|-3-3---3-3-3-|-0-0--0-0-0-0-
g:|-0-----0-0-0--|-2-----2-2-2-|-0>2---2-3-3-|-0>2---2-2-2-|-0-0--0-0-0-0-
D:|-2-----2-2-2--|-0-----0-0-0-|-0-0---0-0-0-|-0-0---0-0-0-|-0-0--0-0-0-0-
A:|-3-----3-3-3--|-------------|-------------|-------------|-2-2--2-2-2-2-
E:|--------------|-------------|-------------|-------------|-3-3--3-3-3-3-

    wee hours I'll meet   you ...                            down by  Dun

    F
   
    v ^ v ^ v ^    v ^ v ^ v ^   
e:|--------------|--------------|
h:|-1------------|--------------|
g:|-2----(2)-(2)-|(2)----2-2-2--|
D:|-3-----3---3--|-3-----3-3-3--| ... from beginning
A:|-3-----3---3--|-3-----3-3-3--|
E:|-1-----1---1--|--------------|

    Ringill ....
Comments