Jethro Tull - Dun Ringill Chords & Tabs

 

Dun Ringill Chords & Tabs

Jethro Tull Chords & Tabs

Version: 1 Type: Tab 0 ratings
1 star 2 stars 3 stars 4 stars 5 stars
comments

Dun Ringill Tab

   
#----------------------------------PLEASE NOTE---------------------------------#
#This file is the author's own work and represents their interpretation of the #
#song. You may only use this file for private study, scholarship, or research. #
#------------------------------------------------------------------------------#
#

Date: Sat, 08 Nov 1997 18:08:13 -0500 (EST)
From: Aqualung54@aol.com
Subject: TAB: dun ringill by jethro tull

Many thanks to kinzel@ibr.cs.tu-bs.de (Jens Kinzel) and Nikolai Ilinsky  for a lot of this tab.    
This is a more correct version of Dun Ringill using ideas from Nikolai Ilinsky and Jens Kinzel.  I also used some of my brain too.


This is definitely one of my favorite Tull songs.  (if there is such a thing)
Ian Anderson is a musical genius!


DUN RINGILL 
(capo III)




1st verse play 10x, then the chorus
2nd verse play 11x, then the chorus
3rd verse play 3x, then go to ending


||--------------------------------0--0--0----|-------------2--2--0-----------0--0--0-----||
||--------------------------------1--1--0----|--------3---3--3--3--------3--3--3--0-----||
||-------2----------2--------2--2--2--2----|------2-----2--2--2-----2-----2--2--0-----|| 
||-----2---------2---------0----0--0--0----|-------------0--0--0-----------0--0--0-----||
||---0----------------------------0--0--0----|---0-------------------3---------------------||
||------------3---------2---------------------|-----------------------------------------------||
      (verses 1, 2, and 3)


[ Tab from: http://www.guitartabs.cc/tabs/j/jethro_tull/dun_ringill_tab.html ]
chorus
   *C              D           DD
|---0----------------|----2----------------|----0 > 2--------------|---0 > 2----------------|
|---1----------------|----3----------------|----3---3---------------|---3 > 3----------------|
|---0----------------|----2----------------|----0 > 2--------------|---0 > 2----------------|
|---2----------------|----0----------------|----0 --0---------------|---0 > 0----------------|
|---3----------------|----------------------|-------------------------|---------------------------|
|---------------------|---------------------|--------------------------|---------------------------|


* listen to the song for the strumming of all the chords.



     DF         F
|---3----------------|----------------------|-------------------------|
|---0----------------|----1----------------|-------------------------|
|---0----------------|----2----------------|----2-------------------|
|---0----------------|----3----------------|----3-------------------|
|---2----------------|----3----------------|----3-------------------|
|---3----------------|----1----------------|----1-------------------|







ending-


|---------------------------0--0--0----|-------------2--2--0------------------------|
|---------------------------1--1--0----|--------3---3--3--3--------3--3--3--3---|
|------2-------2-------2--2--2--2----|-----2------2--2--2-----2-----2--2--2---|
|----2-------2------0-----0--0--0----|-------------0--0--0-----------0--0--0----|
|--0------------------------0--0--0----|--0--------------------3-------3--3--3----|
|----------3------2---------------------|----------------------------------------------|


           
|--------------------------------------------|------------------------------------------|
|------------3--3--3-----------3--3--3--|----------3--3--3-----------3--3--3---|
|--------0--0--0--0-------0---0--0--0--|------0--0--0--0-------0--0--0--0---|     
|-----0-----0--0--0-----0-----0--0--0--|----0----0--0--0-----0----0--0--0---|
|--2--------2--2--2--1--------1--1--1--|-1-------1--1--1--1-------1--1--1---|
|--------------------------------------------|------------------------------------------|


             rake
|----------0-(0)-------------1--0---------------
|--------------3------------3-------------------
|------0---------2--------2---------------------
|----0----------(0)-----0-----------------------
|--1-------------------0------------------------
|-----------------------------------------------



please send corrections or comments to:
aqualung54@aol.com  (jeff boudreau)


ANYONE WHO HAS ANY TULL SHEET MUSIC, PLEASE SEND IT OVER, FOR ANY INSTRUMENT!!!!!!!


JETHRO TULL IS THE GREATEST BAND, EVER!!!!!
Comments