Jethro Tull - Cross-eyed Mary Chords & Tabs

 

Cross-eyed Mary Chords & Tabs

Jethro Tull Chords & Tabs

Version: 2 Type: Tab 0 ratings
1 star 2 stars 3 stars 4 stars 5 stars
comments

Cross-eyed Mary Tab

I don't have the solo in here, but I will try to figure it out and get it to you guys soon.

NOTE: I am doing this all off the top of my head, cause I don't have my guitar by my
side right now, but I'm pretty sure it's all correct.


Jethro Tull - Cross-Eyed Mary
Album - Aqualung


Opening Flute Solo

Verse
E--------------------------------------------
B--------------------------------------------
G-----------------------7--7-----------------
D--2--2---3--3---5--5---7--7----------------- X2
A--2--2---3--3---5--5---5--5--------7--------
E--0--0---1--1---3--3---------5-8-5---5-8-3--


Chorus
E-----------------------       -----------------------
B-----------------------       -----------------------
G-----------------------       -----------------------
D----------------------- X4    ----------------------- X3
A----------7-----5-5----       ------------8-----6-6--
E--5-5-5-8-5---5-8-3-3--       --6-6-6-9-6---6-9-4-4--


E----------------------------------------------------------------
B----------------------------------------------------------------
G------------10~-------------------------------------------------
D----------------------------------------------------------------
A-10-10----------------------------------------------------------
E--8--8----------7~----------------------------------------------


Flute SOLO

Guitar SOLO

Guitar 2 During flute solo plays:
E-----------------------  
B-----------------------
G-----------------------
D----------------------- X4
A----------7-----5-5----
E--5-5-5-8-5---5-8-3-3--
[ Tab from: http://www.guitartabs.cc/tabs/j/jethro_tull/cross_eyed_mary_tab_ver_2.html ]
Guitar 2 During Guitar solo plays:
E-----------------------      ------------------------------
B-----------------------      ------------------------------
G-----------------------      ------------10~---------------
D----------------------- X3   ------------------------------
A------------8-----6-6--      -10-10------------------------
E--6-6-6-9-6---6-9-4-4--      --8--8----------7~------------

NOTE: After the solo the verse changes. It changes to:

Verse
E--------------------------------------------------------------------------
B--------------------------------------------------------------------------
G-------------------------------------------------------7--7---------------
D--2--2-----------------3--3-----------5--5-------------7--7---------------
A--2--2--------2--------3--3--------3--5--5--3-2-3-2----5--5--------7------
E--0--0--0-3-0---0-3-0--1--1--1-3-5----3--3----------3--------5-8-5---5-8-3
^^^Play Twice^^^ (same as regular verse)

Right before the song end there is a little guitar riff which i have tabbed here:

Little Riff
E----------------------------------------------------------------
B----------------------------------------------------------------
G--14b-r12-14-14-14-14-14-14--12b--------------------------------
D----------------------------------------------------------------
A----------------------------------------------------------------
E----------------------------------------------------------------




Order of Song
Verse
Chorus
Verse
Chorus
Solo
New Verse
Chorus
Little Riff
THE END

Notes:
In that last litte riff, when it goes "14b-r12," that means to do a full bend on 14 and
then release the note with a pull-off to 12.


I hope you all enjoy this tab and spread it around, cause we need more Jethro Tull tabs, and fans.
Comments