Jethro Tull - Bouree Chords & Tabs

 

Bouree Chords & Tabs

Jethro Tull Chords & Tabs

Version: 3 Type: Bass Tab 0 ratings
1 star 2 stars 3 stars 4 stars 5 stars
comments

Bouree Bass Tab

Bouree (Jethro Tull)

I revised an exiting tab to re-fret and make corrections.
This version is pretty much right on.

Tabbed by Bruce51

Verse 1
G|-----------------------------------------------------|
D|-12------7-----------------7--10-------7-----------7-|
A|-------8---8--7--8----7--8-------7--10---8--7----8---|
E|----10-------------10-------------------------10-----|

G|--------------------------------------------|
D|------7-----------------7--10--------10-----|
A|----8---8--7--8----7--8-------10---8----8-7-|
E|-10-------------10---------------8----------|

G|------------------------------------------------|
D|------7-----------------7--10------7----------7-|
A|----8---8--7--8----7--8-------10-----8--7---8---|
E|-10-------------10---------------8--------10----|

G|---------------------------------------------|
D|------7-----------------7--10---------10-----|
A|----8---8--7--8----7--8----------7--8----8-7-|
E|-10-------------10------------10-------------|

Verse 2
G|-----------------------------------------|
D|------7-----------------7--10---7--------|
A|----8---8--7--8----7--8-----------7----8-|
E|-10-------------10------------8-----10---|

G|------------------------------------------|
D|------7------7----------7--10------10-----|
A|----8---8--7----------8-------7--8----8-7-|
E|-10------------10--10---------------------|

G|------------------------------------------|
D|--------7-----------------------7-------7-|
A|----------------7----8---7----8-----------|
E|-10--10---10--8---10---8---10-----9--10---|

G|----------------------------------------|
D|------7-----------------------7---------|
A|----8---------7----8---7----8---7-------|
E|-10-----10--8---10---8---10-------9--10-|

Flute solo
G|----------------------------------------|
D|----------------------------------------|
A|----------------------------------------|
E|-10----------------------10-------------|

G|----------10-----------------------10---|
D|-12-10--------------------12-10---------|
A|-------12-----------------------12------|
E|----------------------------------------|

Jammimg
G|-----------------------------------------------|
D|-------------------------------12--------------|
A|--------12--------12----10--10----10--10-------|
E|-10--10----10--10----10------------------8--9--|x4

Transition to solo
G|-----------------------------------------------|
D|--------12--------------------------------7----|
A|------------12--10--8-------7--10-------8------|
E|-10--10---------------10--8-------8--10-----10-|

G|------------------------------------------|
D|-----------------7----7---------------7---|
A|---7--10-------8--------10--8-------8---8-|
E|-8-------8--10-----10---------8--10-------|
[ Tab from: http://www.guitartabs.cc/tabs/j/jethro_tull/bouree_btab_ver_3.html ]
G|--------------------------------------------|
D|-------7---7----------------------------7---|
A|-----8---8---10--8-------7--10-------8------|
E|-10----------------10--8-------8--10-----10-|

G|------------------------------------------|
D|-----------------7---7--7-----------------|
A|---7--10-------8---7------8--7------------|
E|-8-------8--10-----------------10--10--10-|

Bass solo
G|--------------------------------------|
D|-------------7--8--7-------------7----|
A|--------7--8---------8--7--8--10------|
E|-10--10----------------------------10-|

G|------------------9-------9--12--9---------------|
D|---------7--10--7---10----------------11--12--12-|
A|----7--8---------------12----------12------------|
E|-10----------------------------------------------|

G|--------------------------------------|
D|-12-------------------7----------7----|
A|---8--10--11--12----8---7--8--10------|
E|-----------------10---------------10--|

G|--------------------------------------|
D|---------7--10---10--8--------10---10-|
A|----7--8-------8-------10---8----8----|
E|-10-----------------------8-----------|

G|-12-12-12-10--10-10-10--9---------------------|
D|-10-10-10-12---8--8--8-10---10-11-12-12-12-10-|
A|----------------------------10-11-12-12-12-10-|
E|----------------------------------------------|

G|------------------------------------------|
D|-12-12-12-10------------------------------|
A|--8--8--8--8------12-12-12-12-12-12-12-12-|
E|--------------8-9-10-10-10-10-10-10-10-10-|

G|-12-12-10--10-10-10--9---------------------|
D|-10-10-12---8--8--8-10---10-11-12-12-12-10-|
A|-------------------------10-11-12-12-12-10-|
E|-------------------------------------------|

G|------------------------------------------|
D|-12-12-12-10------------------------10-10-|
A|--8--8--8--8------12-12-12-12-12-12--8--8-|
E|--------------8-9-10-10-10-10-10-10-------|

G|---------------------------|
D|-12------------------10-10-|
A|-12---12-12-12-12-12--8--8-|
E|------10-10-10-10-10-------|

G|-12-12--10-10---9------10---------|
D|-12-12--10-10--10--10--10--10-----|
A|---------------------------10--12-|
E|-------------------------------10-|

Transition to Verse 1
G|------------------------|
D|-12------7--------------|
A|-------8---8--7--8----7-|
E|----10-------------10---|

Repeat Verse 1

Ending

G|------------------------------------------------|
D|------7-----------------7--10-------7-----------|
A|----8---8--7--8----7--8-------7--10---8--7----8-|
E|-10-------------10-------------------------10---|

G|---------------------------------------------|
D|------7-------------------7------------------|
A|----8---8--7--8----7--8----------------------|
E|-10-------------10----------------10------10-|
Comments