Jethro Tull - Back To The Family Intro Lick Chords & Tabs

 

Back To The Family Intro Lick Chords & Tabs

Jethro Tull Chords & Tabs

Version: 1 Type: Tab 0 ratings
1 star 2 stars 3 stars 4 stars 5 stars
comments

Back To The Family Intro Lick Tab

   
#----------------------------------PLEASE NOTE---------------------------------#
#This file is the author's own work and represents their interpretation of the #
#song. You may only use this file for private study, scholarship, or research. #
#------------------------------------------------------------------------------##

Date: Thu, 17 Mar 1994 00:57:54 -0400 (EDT)
Subject: /pub/guitar/j/Jethro.Tull/BackToTheFamily TAB
To: jamesb@post-office.nevada.edu
Message-id: 
X-VMS-To: WINS%"jamesb@ftp.nevada.edu"
MIME-version: 1.0
Content-type: TEXT/PLAIN; CHARSET=US-ASCII
Content-transfer-encoding: 7BIT

Back to the Family -- Jethro Tull (Stand Up)

Capo 2, or transpose up 1 full step.
Lyrics not guaranteed!


Intro Lick:
[ Tab from: http://www.guitartabs.cc/tabs/j/jethro_tull/back_to_the_family_intro_lick_tab.html ]
    C               G                         Em               A     Asus2
e|---------------|---------------|----------------|---------------|---0-->
B|---------------|---------------|----------------|---------------|---0-->
G|--0h2-p0----0--|---------------|----------------|---------------|---2-->
D|---------------|--0h2-p0-------|--0--------0h2--|------------2--|---2-->
A|--3->----------|------------3--|-----------0h2--|--0---------0--|---0-->
E|---------------|--3->----------|-------3--------|-------3----0--|------
    x    x    x     x    x    x     x    x    x      x    x    x





Solos (bass/flute, then guitar, then all fade)   D  C  D  C  ...

------------------------------------------------------------------------------
Comments/corrections to: brockman@udavxb.oca.udayton.edu (Bob Brockman)



Lick #2:

This one is played behind most of the verses, during the 'G' chord.
The tab below assumes you're playing an open G (300023); just work
this pattern into your finger-picking, if any.  It also sounds nice
when moved down an octave, but you need to go to dropped-D tuning.

e|----------------|----------------|    (Played twice behind 1st
B|--0--0h1--0-----|----------------|     line of each verse)
G|-------------2--|--0--0----------|
D|----------------|--------0h2--0--|
A|----------------|----------------|
E|----------------|----------------|
Comments