Jethro Tull - Aqualung Chords & Tabs

 

Aqualung Chords & Tabs

Jethro Tull Chords & Tabs

Version: 5 Type: Tab 0 ratings
1 star 2 stars 3 stars 4 stars 5 stars
comments

Aqualung Tab

   
-----------------------------------------------------------------------------------
			      JETHRO TULL - AQUALUNG
-----------------------------------------------------------------------------------


Send comments/feedback to mfo6463@gmail.com


 /  slide up
 \  slide down
 h  hammer-on
 p  pull-off
 ~  vibrato
 b  bend
 br Bend then release



Intro

  (0:01) (0:04)
e|------------------------|
B|------------------------|
G|------------------------|
D|------------------------|
A|--5--------3--4~----3---|
E|-----3--6---------------|


  (0:08) (0:22) (0:36) (0:49)
e|----------------------------------------------------------------------------------------------------|
B|----------------------------------------------------------------------------------------------------|
G|----------------------------------------------------------------------------------------------------|
D|--------------------------6-----6--6--\---------8--8----8-------10----10-10-------------------------|
A|--5--------3--4~----3-----4-----4--4--\---------6--6----6-------8-----8--8-----6--8--6--8--9--------|
E|-----3--6--------------------------------------------------------------------------------------9~---|

  (0:18) (0:32) (0:46) (0:59)
e|----------------------------------------|
B|----------------------------------------|
G|----------------------------------------|
D|----------------------------------------|
A|--6--6--6--6-----9-----9--7-(7)----5~---|
E|--------------9-(9)----------7----------|




Solo

  (3:26)
e|-----1--3/-5--------------------------------------------------------|
B|--3-----------------------------------------------------------------|
G|--------------------------------------------------3-2h3p2-----------|
D|-----------------------------------------------------------3--------|
A|--------------------------------------------------------------3-----|
E|--------------------------------------------------------------------|  


  (3:31)
e|---------------------------------------------------------------------------------|
B|---------------------------------------------------------------------------------|
G|-----------------------------------------------------------------------5--3~-----|
D|--------3--5/-7-----------------------------------------------------5-(5)--------|
A|--3--5--------------------------------------------3--------3--5/-7---------------|
E|---------------------------------------------------------------------------------|


  (3:37)
e|--3-----------------------------------------------3-(3)-----------|
B|-----4-----------------------------------------------3------------|
G|-----------5~----------------------------------------------3~-----|
D|------------------------------------------------------------------|
A|------------------------------------------------------------------|
E|------------------------------------------------------------------|


  (3:42)
e|------------------------------------------------------------------------------|
B|---------------------------------------------------------------------6--8br---|
G|-----------------5--5--5--5-----------5-----5--5--7p5---5-----5--7------------|
D|--------3--5/-7-----------------7--------7------------7----7------------------|
A|--3--5------------------------------------------------------------------------|
E|------------------------------------------------------------------------------|


  (3:47)
e|------------------------------------------------------------------------------|
B|------------------------------------------------------------------------------|
G|--5-----7\-------------3-----5----------------------------3-3-5p3---3---------|
D|--------------5-----------------------3-----------3-----5---------5----5~-----|
A|--------------------------------------------5---------------------------------|
E|------------------------------------------------------------------------------|


  (3:52)
e|----------------------------------------------------------------------------------|
B|----------------------------------------------------------------------------------|
G|--3--5/-7~----------------5--------3----------------------------------------------|
D|--------------------------------------------5-----------3-------------------------|
A|-----------------------------------------------------------5\-3--1--------1--3/-5-|
E|---------------------------------------------------------------------1--3---------|

[ Tab from: http://www.guitartabs.cc/tabs/j/jethro_tull/aqualung_tab_ver_5.html ]
  (3:57)
e|-------------------------------------------------------------------------------|
B|-------------------------------------------------------------------------------|
G|--------3---3--3-3-3------3-----5/-7\-5--3--5p3---3-----------------3--3--5--3-|
D|--3-3-5---5------------5-----5------------------5-------------3--5-------------|
A|--------------------------------------------------------5----------------------|
E|-------------------------------------------------------------------------------|


  (4:02)
e|-----------------------------------------------------------------------------------|
B|--------------------------------6----(6)----8----(8)-------------------------------|
G|--------------------3--5/-7-----------5-----------7-\------------------------------|
D|--5--3--------3--5-----------------------------------------------------10-10-10-10-|
A|--------5-----------------------------------------------------8-10/-12-------------|
E|--------------------------------------------------------8--10----------------------|

  (4:08)
e|-----------------------------------------------------------------------------------------------------------|
B|-----------------------------------------------------------------------------------------------------------|
G|-----10---10-12p10-10-----------------------10-12p10-------------------------------------------------------|
D|--12----12------------12--10-10-12p10----12---------12p10----10-----10--12\-----------------------10br-----|
A|--------------------------------------12-----------------12------12----------10----------------------------|
E|-----------------------------------------------------------------------------------------------------------|


  (4:14)
e|-----------------------------------------------------------------------------------------|
B|-----------------------------------------------------------------------------------------|
G|-----------------------------------------------------------------------------10-12-(12)--|
D|--8--10b---8--------------------------------------8--------------8--10/-12----------12---|
A|--------------10-8--10-8-----------------------10---10~----------------------------------|
E|-----------------------------10----------8-10--------------------------------------------|


  (4:21)
e|--------------10----------------------------------------------------------------------|
B|--------------------------13------------13p11--13p11---11-----------------------------|
G|--10-12----10----12----------10-12----12-----12-----12------12~----10-----------------|
D|----------------------------------------------------------------------12\-10--8-10-8--|
A|--------------------------------------------------------------------------------------|
E|--------------------------------------------------------------------------------------|


  (4:27)
e|---------------------------------------------------------------------------------------------|
B|---------------------------------------------------------------------------------------------|
G|--------------------------------------------------------------------------------10-12/-14~---|
D|10p8----8---------------8-10p8----------------------------10-10-10-10-12-----12--------------|
A|-----10-------8----8-10--------------------------8-10/-12------------------------------------|
E|-----------10---10-------------10\----------8-10---------------------------------------------|


  (4:33)
e|--------13-------13------13---------|
B|--13-15-----13h15---13h15---15~-----|
G|------------------------------------|
D|------------------------------------|
A|------------------------------------|
E|------------------------------------|




Outro

  (5:11) (5:15)
e|------------------------|
B|------------------------|
G|------------------------|
D|------------------------|
A|--5--------3--4~----3---|
E|-----3--6---------------|


 (5:19) (5:46) (6:00)
e|----------------------------------------------------------------------------------------------------|
B|----------------------------------------------------------------------------------------------------|
G|----------------------------------------------------------------------------------------------------|
D|--------------------------6-----6--6--\---------8--8----8-------10----10-10-------------------------|
A|--5--------3--4~----3-----4-----4--4--\---------6--6----6-------8-----8--8-----6--8--6--8--9--------|
E|-----3--6--------------------------------------------------------------------------------------9~---|


  (5:29) (5:56) (6:10)
e|----------------------------------------|
B|----------------------------------------|
G|----------------------------------------|
D|----------------------------------------|
A|--6--6--6--6-----9-----9--7-(7)----5~---|
E|--------------9-(9)----------7----------|


  (6:13) (6:17) (6:21)
e|------------------------|
B|------------------------|
G|------------------------|
D|------------------------|
A|--5--------3--4~----3---|
E|-----3--6---------------|


  (6:23)
e|----------------------------------------------------------|
B|----------------------------------------------------------|
G|----------------------------------------------------------|
D|--6-----------8-----------10----------------------10\-----|
A|--4-----------6-----------8-----------------------8-\-----|
E|----------------------------------------------------------|



=============================================================================
Comments