Jethro Tull - Aqualung Chords & Tabs

 

Aqualung Chords & Tabs

Jethro Tull Chords & Tabs

Version: 4 Type: Tab 0 ratings
1 star 2 stars 3 stars 4 stars 5 stars
comments

Aqualung Tab

Jethro Tull - Aqualung
Tabbed by Matt Margolis


This is the correct version. (There are really two guitars playing, this is the main one).


e(-------------)
B(-------------)
G(-------------)
D(-------------)             Repeat these two bars once
A(-5-----3-4-3-)
E(---3-6-------)
[ Tab from: http://www.guitartabs.cc/tabs/j/jethro_tull/aqualung_tab_ver_4.html ]
e(-------------------------------------------------------------------------)
B(-------------------------------------------------------------------------)
G(-------------------------------------------------------------------------)
D(----------------6-6-6\-8-8-8-10-10-10--------------------------4-4-------)
A(-5-----3-4-3----4-4-4\-6-6-6-8--8--8--6-8-6-8-9-4----6-6-6-6-4-----7---5-)
E(---3-6---------------------------------------------------------------7---)
                          

                          
e(-------------)
B(-------------)
G(-------------)
D(-------------)          Then these two once
A(-5-----3-4-3-)
E(---3-6-------)

e(----------------------------------------------------------------------)
B(----------------------------------------------------------------------)
G(------------------------------------------------------------3-3-------)
D(----------------3-3-3\-5-5-5-7-7-7-5-7-5-7-8-3----5-5-5-5-3-----6---4-)
A(-5-----3-4-3------------------------------------------------------6---)
E(---3-6----------------------------------------------------------------)
Comments