Jethro Tull - Aqualung Chords & Tabs

 

Aqualung Chords & Tabs

Jethro Tull Chords & Tabs

Version: 2 Type: Tab 0 ratings
1 star 2 stars 3 stars 4 stars 5 stars
comments

Aqualung Tab

1  -----------------------------------------------------
2  -----------------------------------------------------
3  -----------------------------------------------------
4  -----------------------------6---6--6-(6)\-8-8--8----
5  -5----3-4--3--5------3-4--3--4---4--4-(4)\-6-6--6----
6  ---3-6------------3-6--------------------------------

[ Tab from: http://www.guitartabs.cc/tabs/j/jethro_tull/aqualung_tab_ver_2.html ]
1  --------------------------------------------------------
2  --------------------------------------------------------
3  --------------------------------------------------------
4  --10---10-10----------------------------------4--4------
5  --8----8--8---6--8--6--6--9-----4---6-6-6-6-4------7---5
6  -----------------------------------------------------7--


jethro tull needs to be more respected not too many ppl know about them other than 30 and 40 year olds lates
Comments