Jethro Tull - Aqualung Chords & Tabs

 

Aqualung Chords & Tabs

Jethro Tull Chords & Tabs

Version: 1 Type: Tab 0 ratings
1 star 2 stars 3 stars 4 stars 5 stars
comments

Aqualung Tab

   
#----------------------------------PLEASE NOTE---------------------------------#
#This file is the author's own work and represents their interpretation of the #
#song. You may only use this file for private study, scholarship, or research. #
#------------------------------------------------------------------------------##
From: kinzel@ibr.cs.tu-bs.de (Jens Kinzel)
Subject: Jethro Tull TAB: AQUALUNG

AUALUNG

(Nearly original version)

heavy metal intro:

    8 8 8 8 4 4    4.8 2   P   8   4      2
e:|-------------|-------------------------|-4-4--4-|-----6---6-------6---
h:|-------------|-------------------------|-6-6--6-|-----8---8-------8---
g:|-------------|-------------------------|-6-6--6-|-----8---8-------8---
D:|-------------|-------------------------|-6-6--6-|-----8---8-------8---
A:|-5---1-3-4-3-|-5--------1--3-4----3----|-4-4--6-|-----6---6-------6---
E:|---3---------|-----3-------------------|--------|---------------------
    8    8 8  4  2   8 8 8 8 8  4   8  8 4 2
e:|------|-8----8--8---6--8-|--6-8--9--9-|-6-6-6-6-9--9-|-9--7-7-5-|---------
h:|------|-10---10-10--8--10|--8-10-11-9-|-8-8-8-8-9--11|-11-9-7-7-|---------
g:|------|-10---10-10--8--10|--8-10-11-10|-8-8-8-8-10-11|-11-9-8-7-|---------
D:|------|-10---10-10--8--10|--8-10-11-11|-8-8-8-8-11-11|-11-9-9-7-|---------
A:|------|-8----8--8---6--8-|--6-8--9--11|-6-6-6-6-11-9-|-9--7-9-5-|---------
E:|------|------------------|----------9-|---------9----|------7---|---------


***************************************************************************************************************

From: jeremyj@freenet2.scri.fsu.edu (Jeremy Joseph)
Subject: Aqualung (Jethro Tull) SUGGESTIONS
[ Tab from: http://www.guitartabs.cc/tabs/j/jethro_tull/aqualung_tab.html ]
 Ok, well the beginning riff and rythm of Aqalung is fairly easy to
figure out, and the acoustic part in the middle isn't really hard
either, but the solo is a bit difficult, I got the first few bars down
to what I think is right, but I'm going to post all of what I know,
and since just about every guitarist in the world knows this song, I
would appreciate it if you would post your versions of parts to the
song if they are different than the ones here, especially the solo.
So, this isn't really a request for the song I just want to know how
other people play it.

Opening riff:
   "Sitting on the park bench..."
e:----------------------------|
B:----------------------------|
G:----------------------------|
D:----------------------------|
A:--5--------3--4~--3---------|
E:-----3--6-------------------|

Verse rythm section: (play 3 string power chords)

"Eyeing little girls with bad intent..."
Db Db Db Eb Eb Eb F F F Eb F Eb F Gb Db

"Hey, Aqalung"
Eb Eb Eb Db Gb Gb E B D

I'm pretty sure everyone can do without tab here

Acoustic Part (Slow):

"Sun streaking cold, an old man..."
Gm Gm   F F F F  C C   Cm Cm   Gm Gm   F F F F

Here occasionally hammer the 2nd and 3rd frets on the G string 
while playing the F chords.

Acoustic Part (Faster):

"I still remember..."
Gm     F F F    F    Gm Gm Gm  

"Taking time the only time he knows..."
Gm Gm  F F F F   Cm Cm Gm Gm  F F F F

And here is 1st part of the solo:

e:-------------------------------------------------------
B:-------------------------------------------------------
G:------10/12--14~----10\9-------------------------------
D:--10----------------------10------------------3-5--5/7-
A:------------------------------12\3--3----3h5-----------
E:-------------------------------------------------------
Comments