Jethro Tull - Aqualung Correct With Solo Chords & Tabs

 

Aqualung Correct With Solo Chords & Tabs

Jethro Tull Chords & Tabs

Version: 1 Type: Tab 3 ratings
1 star 2 stars 3 stars 4 stars 5 stars
comments

Aqualung Correct With Solo Tab

   
Song: Aqualung
Band: Jethro Tull
Submitted by: guitarfreak111
My e-mail:diverdown@verizon.net

**This was taken straight out of the December 2003 issue of Guitar World, so
it's completely correct**

LEGEND: ^ = hammer on/pull off
    b(  ) = bend to indicated fret
	  ~ = vibrato
         = slide down
        / = slide up
  

Main Riff/Intro(0:00)
e------------------------------
b------------------------------
g------------------------------
d------------------------------
a--5-----3-4-3-----------------
E----3-6-----------------------

First Verse(0:04)

  Db5     Eb5      F5       N.C.
e--------------------------------------------------
b--------------------------------------------------
g--------------------------------------------------
d--6--6-6--8--8-8--10--10-10-----------------------
a--4--4-4--6--6-6---8---8--8----6--8--6--8--9------
E----------------------------------------------9---

e----------------------------------
b----------------------------------
g----------------------------------
d--------------------4-2-----7-----
a----------------9-------2---5-----
e--11-11-11-11-9-------------------
[ Tab from: http://www.guitartabs.cc/tabs/j/jethro_tull/aqualung_correct_with_solo_tab.html ]
Second & Third Verse Chords(1:34, 2:33)
   
   Gm  Fv  C  Cm  F  Fsus4
e--3---5------3---5---6-----------------------------
b--3---6---5--4---6---6-----------------------------
g--3---5---5--5---5---5-----------------------------
d--5---7---5--5-------------------------------------
a--5---8---3--3-------------------------------------
E--3------------------------------------------------

Guitar Solo(3:22)
e--------------------------------------------------------------------------------
b-------6-8/10-10~~~~~~~---------------------------------------------------------
g---7-------------------3--2^3^2----------------------------------------5--3~~~~~
d--------------------------------3-------------3-5-5/7~~~~~~----------5----------
a----------------------------------3~~~~~~~-3^5--------------3--3-5/7------------
E--------------------------------------------------------------------------------

e---3-------------3--------------------------------------------------------------
b-----4-------------3-------------------------------------------------------6----
g-------5-5~~~~~~-----3--3~~~~~~-----------5-5-5-5---5---5-5--7^5---5---5-7------
d------------------------------------3-5/7---------7---7----------7---7----------
a--------------------------------3^5---------------------------------------------
E--------------------------------------------------------------------------------

e---------------------------------------------
b-8b(10)-(8)-(8)^6----------------------------
g-------------------5--7---------------------
d---------------------------------------------
a---------------------------------------------
E---------------------------------------------

Comments