Jet Set Satellite - Best Way To Die Chords & Tabs

 

Best Way To Die Chords & Tabs

Jet Set Satellite Chords & Tabs

Version: 1 Type: Tab 0 ratings
1 star 2 stars 3 stars 4 stars 5 stars
comments

Best Way To Die Tab

   
-------------------------------------------------------------------------------
			     Best Way to Die - Jet Set Satellite
-------------------------------------------------------------------------------
Tabbed by:Mitch paradis
Email:fox69_deadly@hotmail.com

Tuning: Gtr. 1- standard
        Gtr. 2- standard (u could use drop D)

This is a pretty good song. i heard it a couple o days ago, but couldn't find a decent
tab so i did it myself. I'm fairly new 2 tabbing so don't expect it 2 be perfect.

Intro

Gtr. 1
e---------------------|
B---------------------|
G-5-5-5-0-0-5-5-5-7-7-|
D-3-3-3-0-0-3-3-3-5-5-|
A-3-3-3-0-0-3-3-3-5-5-|
D-3-3-3-0-0-3-3-3-5-5-|

Gtr. 2

e---------------------------------|
B---------------------------------|
G---------------------------------|
D-(3)-(3)-(3)-0-0-(3)-(3)-(3)-5-5-|
A-(3)-(3)-(3)-0-0-(3)-(3)-(3)-5-5-|
D-(3)-(3)-(3)-0-0-(3)-(3)-(3)-5-5-|

Verse 1 "Count The Days And Serveral Ways To Die, This Is The Drug That Told Her She 
Fly" (a bit palm muted)

e---------------------------------|
B---------------------------------|
G---------------------------------|
D-(3)-(3)-(3)-0-0-(3)-(3)-(3)-5-5-|
A-(3)-(3)-(3)-0-0-(3)-(3)-(3)-5-5-|
D-(3)-(3)-(3)-0-0-(3)-(3)-(3)-5-5-|

Chorus "The Best Way To Die, Will Start Here Tonight"

Gtr. 1 (Has Distortion)
e---------------------|
B---------------------|
G-5-5-5-0-0-5-5-5-7-7-|
D-3-3-3-0-0-3-3-3-5-5-|
A-3-3-3-0-0-3-3-3-5-5-|
D-3-3-3-0-0-3-3-3-5-5-|

Gtr. 2

e---------------------------------|
B---------------------------------|
G---------------------------------|
D-(3)-(3)-(3)-0-0-(3)-(3)-(3)-5-5-|
A-(3)-(3)-(3)-0-0-(3)-(3)-(3)-5-5-|
D-(3)-(3)-(3)-0-0-(3)-(3)-(3)-5-5-|

Verse 2 "There's An Engine Running In The Red, Due To The Boiling Fever In His Head" 
palm muted)

e---------------------------------|
B---------------------------------|
G---------------------------------|
D-(3)-(3)-(3)-0-0-(3)-(3)-(3)-5-5-|
A-(3)-(3)-(3)-0-0-(3)-(3)-(3)-5-5-|
D-(3)-(3)-(3)-0-0-(3)-(3)-(3)-5-5-|
[ Tab from: http://www.guitartabs.cc/tabs/j/jet_set_satellite/best_way_to_die_tab.html ]
Chorus "The Best Way To Die, Will Start Here Tonight"

Gtr. 1 (Has Distortion)
e---------------------|
B---------------------|
G-5-5-5-0-0-5-5-5-7-7-|
D-3-3-3-0-0-3-3-3-5-5-|
A-3-3-3-0-0-3-3-3-5-5-|
D-3-3-3-0-0-3-3-3-5-5-|

Gtr. 2

e---------------------------------|
B---------------------------------|
G---------------------------------|
D-(3)-(3)-(3)-0-0-(3)-(3)-(3)-5-5-|
A-(3)-(3)-(3)-0-0-(3)-(3)-(3)-5-5-|
D-(3)-(3)-(3)-0-0-(3)-(3)-(3)-5-5-|

Bridge "You Don't Deserve This"

Gtr. 1

e--------------------------------|
B-10\8/10--6p5h63p1~h3----------|
G--------------------------------|
D--------------------------------|
A--------------------------------|
D--------------------------------|

Gtr 2.

e------------------------------|
B------------------------------|
G-7-------5--------------------|
D-7-(x16)-5-(x8)---------------|
A-5-------3--------------------|
D-5-------3--------------------|

Chorus "The Best Way To Die, Will Start Here Tonight"

Gtr. 1 (Has Distortion)
e---------------------|
B---------------------|
G-5-5-5-0-0-5-5-5-7-7-|
D-3-3-3-0-0-3-3-3-5-5-|
A-3-3-3-0-0-3-3-3-5-5-|
D-3-3-3-0-0-3-3-3-5-5-|

Gtr. 2

e---------------------------------|
B---------------------------------|
G---------------------------------|
D-(3)-(3)-(3)-0-0-(3)-(3)-(3)-5-5-|
A-(3)-(3)-(3)-0-0-(3)-(3)-(3)-5-5-|
D-(3)-(3)-(3)-0-0-(3)-(3)-(3)-5-5-|

Outro "You Don't Deserve This"

Gtr. 1 (Has Distortion)
e---------------------|
B---------------------|
G-5-5-5-0-0-5-5-5-7-7-|
D-3-3-3-0-0-3-3-3-5-5-|
A-3-3-3-0-0-3-3-3-5-5-|
D-3-3-3-0-0-3-3-3-5-5-|

Gtr. 2

e---------------------------------|
B---------------------------------|
G---------------------------------|
D-(3)-(3)-(3)-0-0-(3)-(3)-(3)-5-5-|
A-(3)-(3)-(3)-0-0-(3)-(3)-(3)-5-5-|
D-(3)-(3)-(3)-0-0-(3)-(3)-(3)-5-5-|

alrighty, if u like it, rate it. if ya live around nipawin gimme a call an we'll make a band.

| /  slide up
| \  slide down
| h  hammer-on
| p  pull-off
| ~  vibrato
| +  harmonic
| x  Mute note
===============================================================================
Comments