Jet - Take It Or Leave It Chords & Tabs

 

Take It Or Leave It Chords & Tabs

Jet Chords & Tabs

Version: 1 Type: Tab 0 ratings
1 star 2 stars 3 stars 4 stars 5 stars
comments

Take It Or Leave It Tab

   
#----------------------------------PLEASE NOTE---------------------------------#
#This file is the author's own work and represents their interpretation of the #
#song. You may only use this file for private study, scholarship, or research. #
#------------------------------------------------------------------------------#

Jet - Take It Or Leave It

tabbed by Trajko Skopelja

Intro Riff
E-------------------------------------------
B-------------------------------------------
G-------------------------------------------
D-------------------------------------------
A-------------------------------------------
E--5-5-5-5-3--------------------------------

Riff A
---------------------------------------------
------5----5--7--5--7b--7--5---7--5----------
------5----5--7--5--7b--7--5---7--5----------
(7)-7----7---------------------------7-------
----------------------------------------(0)--
---------------------------------------------

Riff D
---------------------------------------------
----10----10--12--10--12b-12--10--12--10-----
----10----10--12--10--12b-12--10--12--10-----
-12----12--------------------------------12--
---------------------------------------------
---------------------------------------------
[ Tab from: http://www.guitartabs.cc/tabs/j/jet/take_it_or_leave_it_tab.html ]
Intro riff, accompanied with the second guitar playing tha barre chords A and G


Back to intro riff

then:

---------------------------------------------
---------------------------------------------
-----5-------------5-------5-------7s9--7--5-
-7-7---7-----5--7------7-7---7--------------- x2
----------7---------------------7------------
---------------------------------------------

solo (it's the basis of the solo, work around the minor notes)
-------5------5-------5------5---------------
-----5------5-------5------5-----------------
--7b-----7b------7b-----7b-----7b9r7p5-7-5---
---------------------------------------------
---------------------------------------------
---------------------------------------------

---------------------------------------------
---------------------------------------------
------5----------7b9r7p5-7-5-----------------
--7-7---7--5--7------------------------------
---------------------------------------------
---------------------------------------------

-------------------------------------------------------
------------10--10-------------12--12--13--13----------
-9-9-9-9-9--9---9----------12--12--12--12--12----14vb--
-------------------------------------------------------
-------------------------------------------------------
-------------------------------------------------------

Back to intro riff
Comments