Jet - Sweet Young Thing Chords & Tabs

 

Sweet Young Thing Chords & Tabs

Jet Chords & Tabs

Version: 1 Type: Tab 0 ratings
1 star 2 stars 3 stars 4 stars 5 stars
comments

Sweet Young Thing Tab

Thise is my first tab, I was watching Jet's Family Style DVD and found out how to play
some of it and the rest i figured out on my own.


e|-------|----------------------------------------------|
B|-------|----------------------------------------------|
G|-------|----------------------------------------------|
D|-------|-----------7p5h7-------5h7--------------------|
A|-------|------5h7---------5h7-------5--3--------------|
E|--15s3-|----------------------------------------------|x13
[ Tab from: http://www.guitartabs.cc/tabs/j/jet/sweet_young_thing_tab.html ]
play this up to. "if your a sweet young thing, come on and open your door"

i havent figured out the part the second guitar plays in the background yet.

this comes next
e|----------------------------|
B|----------------------------|
G|----------------------------|
D|--7-7-7-7-7-7-7-7---5--5----|
A|--7-7-7-7-7-7-7-7---5--5----|
E|--5-5-5-5-5-5-5-5---3--3----|

it's not much but keep repeating this throughout the song. if you people thinks it's
right and its rated good i'll figure out the whole song for all of you.
Comments