Jet - Rollover Dj Chords & Tabs

 

Rollover Dj Chords & Tabs

Jet Chords & Tabs

Version: 4 Type: Tab 0 ratings
1 star 2 stars 3 stars 4 stars 5 stars
comments

Rollover Dj Tab

Jet - Rollover D.J.


/  = Slide
() = Optional


Intro:

e|------------------------------------------------------|
B|------------------------------------------------------|
G|----------------7-7-----------------------------------|X2
D|-7-7-5-7---5-5--5-5----7-7-5-7---5-5------------------|
A|-5-5-3-5---3-3---------5-5-3-5---3-3--5-5-------------|
E|--------------------------------------3-3-------------|


Verse:

e|------------------------------------------------------|
B|------------------------------------------------------|
G|-------------5----------------------------------------|X3
D|--7-7--2/3--(5)--5-5----------------------------------|
A|--5-5------------3-3--5-5--7-7------------------------|
E|----------------------3-3--5-5------------------------|


"What's your name?"

D|--10-------------|X2
A|--8----let ring--|


e|------------------------------------------------------|
B|------------------------------------------------------|
G|-------------5----------------------------------------|X3
D|--7-7--2/3--(5)--5-5----------------------------------|
A|--5-5------------3-3--5-5--7-7------------------------|
E|----------------------3-3--5-5------------------------|

"What's your name?"

D|--10-------------|X2
A|--8----let ring--|


Chorus:

e|-------------------------------------------------------------|
B|---------------------------------------------10-----12-10----|
G|-----------------------------5-5---5-5-5--10----10--------12-|X2
D|--7-7---7-7-7--5-5---5-5-5---3-3---3-3-3---------------------|
A|--5-5---5-5-5--3-3---3-3-3-----------------------------------|
E|-------------------------------------------------------------|

e|-----------------------------------------------------------------------|
B|-------------------------------------------------------10-----12-10----|
G|-----------------------------------5-5-5-5-5-5-5-5--10----10--------12-|X1
D|-7-7-7-7-7-7-7-7--5-5-5-5-5-5-5-5--3-3-3-3-3-3-3-3---------------------|
A|-5-5-5-5-5-5-5-5--3-3-3-3-3-3-3-3--------------------------------------|
E|-----------------------------------------------------------------------|
Intro:

e|------------------------------------------------------|
B|------------------------------------------------------|
G|----------------7-7-----------------------------------|X1
D|-7-7-5-7---5-5--5-5----7-7-5-7---5-5------------------|
A|-5-5-3-5---3-3---------5-5-3-5---3-3--5-5-------------|
E|--------------------------------------3-3-------------|

Verse:
[ Tab from: http://www.guitartabs.cc/tabs/j/jet/rollover_dj_tab_ver_4.html ]
e|------------------------------------------------------|
B|------------------------------------------------------|
G|-------------5----------------------------------------|X3
D|--7-7--2/3--(5)--5-5----------------------------------|
A|--5-5------------3-3--5-5--7-7------------------------|
E|----------------------3-3--5-5------------------------|


"What's your name?"

D|--10-------------|X2
A|--8----let ring--|


Chorus:

e|-------------------------------------------------------------|
B|---------------------------------------------10-----12-10----|
G|-----------------------------5-5---5-5-5--10----10--------12-|X2
D|--7-7---7-7-7--5-5---5-5-5---3-3---3-3-3---------------------|
A|--5-5---5-5-5--3-3---3-3-3-----------------------------------|
E|-------------------------------------------------------------|

e|-----------------------------------------------------------------------|
B|-------------------------------------------------------10-----12-10----|
G|-----------------------------------5-5-5-5-5-5-5-5--10----10--------12-|X1
D|-7-7-7-7-7-7-7-7--5-5-5-5-5-5-5-5--3-3-3-3-3-3-3-3---------------------|
A|-5-5-5-5-5-5-5-5--3-3-3-3-3-3-3-3--------------------------------------|
E|-----------------------------------------------------------------------|


Bridge:

e|------------------------------------------------------|
B|-------------------------------5-----5-----5-5--7-----|X2
G|-----4-----4-----2-2--------7--x---7-x---7-x-x--x-7---|
D|-7---x---7-x---5-x-x-5-5-5--5--5---5-5---5-5-5--7-5---|
A|-5---5---5-5---3-3-3-3-3-3----------------------------|
E|------------------------------------------------------|


Chorus:

e|-------------------------------------------------------------|
B|---------------------------------------------10-----12-10----|
G|-----------------------------5-5---5-5-5--10----10--------12-|X2
D|--7-7---7-7-7--5-5---5-5-5---3-3---3-3-3---------------------|
A|--5-5---5-5-5--3-3---3-3-3-----------------------------------|
E|-------------------------------------------------------------|


e|-----------------------------------------------------------------------|
B|-------------------------------------------------------10------12-10---|
G|-----------------------------------5-5-5-5-5-5-5-5--10----10--------12-|X3
D|-7-7-7-7-7-7-7-7--5-5-5-5-5-5-5-5--3-3-3-3-3-3-3-3---------------------|
A|-5-5-5-5-5-5-5-5--3-3-3-3-3-3-3-3--------------------------------------|
E|-----------------------------------------------------------------------|


Intro:

e|------------------------------------------------------|
B|------------------------------------------------------|
G|----------------7-7-----------------------------------|X1
D|-7-7-5-7---5-5--5-5----7-7-5-7---5-5------------------|
A|-5-5-3-5---3-3---------5-5-3-5---3-3--5-5-------------|
E|--------------------------------------3-3-------------|
Comments