Jet - Rollover Dj Chords & Tabs

 

Rollover Dj Chords & Tabs

Jet Chords & Tabs

Version: 1 Type: Tab 2 ratings
1 star 2 stars 3 stars 4 stars 5 stars
comments

Rollover Dj Tab

Artist: Jet

Album: Get Born

Date: 2004

Tabbed By: Ultimate_Tabber32

Email: Calvin_Bypost13@Yahoo.com

Intro
  
--3--5--5--3--5--3--3------------3--5--5--3--5--3--3----------
--5--7--7--5--7--5--5------------5--7--7--5--7--5--5----------
--5--7--7--5--7--5--5------------5--7--7--5--7--5--5----------
--5--7--7--5--7--5--5--5--5--5---5--7--7--5--7--5--5--5--5--5-
--3--5--5--3--5--3--3--5--5--5---3--5--5--3--5--3--3--5--5--5-
-----------------------3--3--3------------------------3--3--3-

Verse
Guitar 1
--5--5---------3--3------------5--5---------3--3------------
--7--7---------5--5------------7--7---------5--5------------
--7--7------7--5--5------------7--7------7--5--5------------
--7--7---------5--5--5--5--5---7--7---------5--5--5--5--5---
--5--5--8-9----3--3--5--5--5---5--5--8-9----3--3--5--5--5---
---------------------3--3--3----------------------3--3--3---

Guitar 2
--5------5--5--3--3------------5------5--5--3--3------------
--7------7--7--5--5------------7------7--7--5--5------------
--7------7--7--5--5------------7------7--7--5--5------------
--7------7--7--5--5--5--5--5---7------7--7--5--5--5--5--5---
--5------5--5--3--3--5--5--5---5------5--5--3--3--5--5--5---
---------------------3--3--3---------- -----------3--3--3---
[ Tab from: http://www.guitartabs.cc/tabs/j/jet/rollover_dj_tab.html ]
Chorus
Guitar 1
--5--5--5--5---3--3--3--3--3--3---8--8--8--8----10-10-10-10-10-10-10-
--7--7--7--7---5--5--5--5--5--5---10-10-10-10---12-12-12-12-12-12-12-
--7--7--7--7---5--5--5--5--5--5---10-10-10-10---12-12-12-12-12-12-12-
--7--9--7--9---5--5--7--5--5--7---10-11-10-11---12-12-14-12-15-14-12-
--5--5--5--5---3--3--3--3--3--3---8--8--8--8----10-10-10-10-10-10-10-
--------------------------------------------------------------------- 

Guitar 2

--5--5--5-5-5---3--3----3-3-3------1--1--1-1-1---3--3-----3-3-3--
--7--7--7-7-7---5--5----5-5-3------1--1--1-1-1---3--3-----3-3-3--
--7--7--7-7-7---5--5----5-5-5------2--2--2-2-2---4--4-----4-4-4--
--7--7--7-7-7---5--5----5-5-5------3--3--3-3-3---5--5-----5-5-5--
--5--5--5-5-5---3--3----3-3-3------3--3--3-3-3---5--5-----5-5-5--
-----------------------------------1--1--1-1-1---3--3-----3-3-3-- 


--5-5-5-5-5-5-5-5---1-1-1-1-1-1-1-1--3-3-3-3-3-3-3-3----
--7-7-7-7-7-7-7-7---1-1-1-1-1-1-1-1--3-3-3-3-3-3-3-3----
--7-7-7-7-7-7-7-7---2-2-2-2-2-2-2-2--4-4-4-4-4-4-4-4----
--7-7-7-7-7-7-7-7---3-3-3-3-3-3-3-3--5-5-5-5-5-5-5-5----
--5-5-5-5-5-5-5-5---3-3-3-3-3-3-3-3--5-5-5-5-5-5-5-5----
--------------------1-1-1-1-1-1-1-1--3-3-3-3-3-3-3-3---  

Bridge:

--5--5--5--5---3--3--3--3--3--3---10-10-10-10---10-10-10-10-10--
--7--7--7--7---5--5--5--5--5--5---12-12-12-12---12-12-12-12-12--
--7--7--7--7---5--5--5--5--5--5---12-12-12-12---12-12-12-12-12--
--7--9--7--9---5--5--7--5--5--7---12-14-12-14---12-12-14-15-14--
--5--5--5--5---3--3--3--3--3--3---10-10-10-10---10-10-10-10-10--
----------------------------------------------------------------

Outro

--3--5--5--3--5--3--3------------3--5--5--3--5--3--3--------
--5--7--7--5--7--5--5------------5--7--7--5--7--5--5--------
--5--7--7--5--7--5--5------------5--7--7--5--7--5--5--------
--5--7--7--5--7--5--5--5--5--5---5--7--7--5--7--5--5---7--7-
--3--5--5--3--5--3--3--5--5--5---3--5--5--3--5--3--3---7--7-
-----------------------3--3--3-------------------------5--5-
Comments