Jet - Roll Over Dj Chords & Tabs

 

Roll Over Dj Chords & Tabs

Jet Chords & Tabs

Version: 1 Type: Tab 7 ratings
1 star 2 stars 3 stars 4 stars 5 stars
comments

Roll Over Dj Tab

/  = Slide

Intro:

e|------------------------------------------------------|
B|----------------7-7-----------------------------------|
G|-7-7-5-7---5-5--7-7----7-7-5-7---5-5------------------|X2
D|-7-7-5-7---5-5--5-5----7-7-5-7---5-5--5-5-------------|
A|-5-5-3-5---3-3---------5-5-3-5---3-3--5-5-------------|
E|--------------------------------------3-3-------------|


Verse:

e|------------------------------------------------------|
B|------------------------------------------------------|
G|--7-7--------5---5-5----------------------------------|X3
D|--7-7--2/3-------5-5--5-5--7-7------------------------|
A|--5-5------------3-3--5-5--7-7------------------------|
E|----------------------3-3--5-5------------------------|


"What's your name?"
e|-----------------|
B|-----------------|
G|--10-------------|
D|--10-------------|X2
A|--8----let ring--|
E|-----------------|

Chorus:

e|-------------------------------------------------------------|
B|-----------------------------5-5---5-5-5-----10-----12-10----|
G|--7-7---7-7-7--5-5---5-5-5---5-5---5-5-5--10----10--------12-|X3
D|--7-7---7-7-7--5-5---5-5-5---3-3---3-3-3---------------------|
A|--5-5---5-5-5--3-3---3-3-3-----------------------------------|
E|-------------------------------------------------------------|
[ Tab from: http://www.guitartabs.cc/tabs/j/jet/roll_over_dj_tab.html ]
e|---------------------------------------------------------------------
B|-----------------------------------5-5-5-5-5-5-5-5----7--------------
G|-7-7-7-7-7-7-7-7--5-5-5-5-5-5-5-5--5-5-5-5-5-5-5-5----7-let ring-----
D|-7-7-7-7-7-7-7-7--5-5-5-5-5-5-5-5--3-3-3-3-3-3-3-3----5--------------
A|-5-5-5-5-5-5-5-5--3-3-3-3-3-3-3-3------------------------------------
E|---------------------------------------------------------------------





Bridge:
E|-------------------------------------------------|
B|----------------------------7-9-7-9--7-7-9-10-9--|
G|-7---9---7-9---5-5-7-5-5-7--7-9-7-9--7-7-9-10-9--|
D|-7---9---7-9---5-5-7-5-5-7--5-5-5-5--5-5-5--5-5--|
A|-5---5---5-5---3-3-3-3-3-3-----------------------|X2
E|-------------------------------------------------|


End Chorus:
e|-------------------------------------------------------------|
B|-----------------------------5-5---5-5-5-----10-----12-10----|
G|--7-7---7-7-7--5-5---5-5-5---5-5---5-5-5--10----10--------12-|X2
D|--7-7---7-7-7--5-5---5-5-5---3-3---3-3-3---------------------|
A|--5-5---5-5-5--3-3---3-3-3-----------------------------------|
E|-------------------------------------------------------------|

e|---------------------------------------------------------------------
B|-----------------------------------5-5-5-5-5-5-5-5-5-5-5-5-5-5-5-5-5-
G|-7-7-7-7-7-7-7-7--5-5-5-5-5-5-5-5--5-5-5-5-5-5-5-5-5-5-5-5-5-5-5-5-5-
D|-7-7-7-7-7-7-7-7--5-5-5-5-5-5-5-5--3-3-3-3-3-3-3-3-3-3-3-3-3-3-3-3-3-
A|-5-5-5-5-5-5-5-5--3-3-3-3-3-3-3-3------------------------------------
E|---------------------------------------------------------------------

e|---------------------------------------------------------------------
B|-----------------------------------5-5-5-5-5-5-5-5----7--------------
G|-7-7-7-7-7-7-7-7--5-5-5-5-5-5-5-5--5-5-5-5-5-5-5-5----7-let ring-----
D|-7-7-7-7-7-7-7-7--5-5-5-5-5-5-5-5--3-3-3-3-3-3-3-3----5--------------
A|-5-5-5-5-5-5-5-5--3-3-3-3-3-3-3-3------------------------------------
E|---------------------------------------------------------------------


Thanx... any questions/comments suggestions email me at m4573r8470r@gmail.com
thx ROCK ON!
Comments