Jet - Move On Chords & Tabs

 

Move On Chords & Tabs

Jet Chords & Tabs

Version: 5 Type: Tab 0 ratings
1 star 2 stars 3 stars 4 stars 5 stars
comments

Move On Tab

   
Jet - Move on
Tabbed by Sompan

=============================================

INTRO:
	   (G)			 (C)
E	|---3--------------------|--0--0--0-3-3-----------|
B	|---0--------------------|--1--1--1-1-1-----------|
G	|---0--0-0--0h2p0----0---|--0--0--0-0-0-----------|
D	|---0----0--------0h2----|--2--2------2--0h2h0----|
A	|---2----2---------------|--3--3------3-----------|
E	|---3--------------------|------------------------|

Repeat twice!


Verse: (Just strum the chords)
Lyrics (With chords): 


        (G)                       (C)		             (G)
Well I've been thinking 'bout the future
		 (C)
Too young to pretend
	  (G)			   (C)			     (G)
It's such a waste to always look behind you
			   (C)
Should be lookning strait ahead
(D)			  (C)				     (Am)
Yeah... I'm gonna have to move on
		 (C)
Before we meet again
(G)	     (D)
Yeah... It's hard
	    (C)
If you had've only seen
[ Tab from: http://www.guitartabs.cc/tabs/j/jet/move_on_tab_ver_5.html ]
(Second guitar comes in and plays a SOLO :P First guitar plays INTRO twice! )
	(G)				(C)
E	|-------------------------------|------------------------------|
B	|----------10--12---12b---------|---8--10--12-------15b-15-----|
G	|----9/12----------------9---7b-|---9--11--12--9---------------|
D	|-------------------------------|--------------10--------------|
A	|-------------------------------|------------------------------|
E	|-------------------------------|------------------------------|


Verse: (Just strum the chords, The second guitar plays some backup solo! Fun!)
Lyrics (With chords):
           (G)			(C)			      (G)
Ten thirty four Flinders Street station
		     (C)				      
I'm looking down the tracks
  (G)			   (C)     			      (G)
Uniformed man asking am I paid up
		  (C)		
Why would I wanna beeee there?
(D)			  (C)			      	      (Am)
Yeah... I'm gonna have to move on
		 (C)
Before we meet again
(G)	     (D)
Yeah... It's hard
	    (C)
If you had only seen
(G)      (D)						     
Take... control
	  (C)
Don't be afraid of me

(Harmonica comes in)

			G
Cause every once in a while
					(C)
You think you proud if you're gonna 
					(G)
get yourself together
			   (C)
You'll be happy just to be alive
	  (G)
And just because
		   (C)
ya'just don't feel like
					(G)
comming home
			    (C)
Don't mean that you'll never arrive

(D)			  (C)				     (Am)
Yeah... I'm gonna have to move on
		 (C)
Before we meet again
(G)	     (D)
Yeah... It's Hard
	    (C)
If you had only seen
(G)      (D)						     
Take... control
	  (C)						      (G)
Don't be afraid of me

-----------------------------------

The second guitar plays background solo during the rest of the song.
Comments