Jet - Move On Chords & Tabs

 

Move On Chords & Tabs

Jet Chords & Tabs

Version: 4 Type: Tab 0 ratings
1 star 2 stars 3 stars 4 stars 5 stars
comments

Move On Tab

   
This tab has the whole song.  There is a tab on this site with the intro and one with
the chords, but none of them have the lead parts in the middle of the verses and
choruses, so here it goes:

INTRO:

e--7/10--10-7p5-3-3----------------------------------------------------------
B--------------------5---5/8-8-----------------------------------------------
G----------------------0-------9-7-5-4/12------------------------------------
D----------------------------------------------------------------------------
A----------------------------------------------------------------------------
E----------------------------------------------------------------------------

e--7/10-7-5-3---3/8-12-12-10-8-7/10-10-7p5-3-3-------------------------------
B-------------5--------------------------------5\3/5-5\3---------------------
G----------------------------------------------------------------------------
D----------------------------------------------------------------------------
A----------------------------------------------------------------------------
E----------------------------------------------------------------------------

           G      C     G    C
VERSE 1:

        G                  C   
Well I been thinking bout the future
G               C 
Too young to pretend
      G                       C
Such a waste to always look behind you
G                                        C
You should be looking straight straight ahead

CHORUS:

D                       C
Yeah, I'm gonna have to move on
Am              C
Before we meet again
G          D
Yeah, it's hard
                       C    
If you would have only seen 

LYRICS:
                                    Ten thirty-four  Flinders Street Station
Gtr. 1:
   G          C       G        C                  G                  C
Gtr. 2:   
e----3--5-7-8\7-0------3-5-7-8\7-0------12-----10----------------------------
B-----------------5\3--------------------------------------------------------
G----------------------------------------------------------------------------
D----------------------------------------------------------------------------
A----------------------------------------------------------------------------
E----------------------------------------------------------------------------

LYRICS:
               Lookin down the tracks                        a uiformed
Gtr. 1:
  G                            C
Gtr. 2:
e--------3-------------------------------------------------------------------
B--5p3-3---------------------------------------------------------------------
G----------------------------------------------------------------------------
D----------------------------------------------------------------------------
A----------------------------------------------------------------------------
E----------------------------------------------------------------------------

LYRICS:
   man   asking   am  I   paid  up   Why would I wanna be there  
Gtr 1:
   G                      C         G                    C         

CHORUS:
[ Tab from: http://www.guitartabs.cc/tabs/j/jet/move_on_tab_ver_4.html ]
LYRICS:
  Yeah, I'm gonna have to move on              Before we meet again
Gtr.1:
  D                       C         Am                         C
Gtr. 2:
--------3------------------------3-------
--5p3-3--------------------5p3-3---------
-----------------------------------------
-----------------------------------------
-----------------------------------------
-----------------------------------------

LYRICS:
  Yeah,       It's hard         If you had have only seen
Gtr.1:
  G                D                            C
Gtr.2:
e-3----8\7-0------------8\7-0-------------------------3----------------------
B-----------------------------------------------5p3-3------------------------
G----------------------------------------------------------------------------
D----------------------------------------------------------------------------
A----------------------------------------------------------------------------
E----------------------------------------------------------------------------

VERSE 3:

LYRICS:
  
 And every once in a while you think about if you're gonna get yourself together
 should be happy just to be alive
 And just because you just don't feel like comin home 
 Don't mean that you're never alive

(For guitar part play G and C alternating every measure)

CHORUS:

LYRICS:
  Yeah, I'm gonna have to move on
Gtr.1:
 (Play same as last chorus) 
Gtr.2:
--------------------------5\3/-5---------------------------------------------
------------------------------------5p3-3-5----------------------------------
-----------------------------------------------------------------------------
-----------------------------------------------------------------------------
-----------------------------------------------------------------------------
-----------------------------------------------------------------------------

  Before we meet again
-----------------------------------------------------------------------------
------------------5p3-3-5----------------------------------------------------
-----------------------------------------------------------------------------
-----------------------------------------------------------------------------
-----------------------------------------------------------------------------
-----------------------------------------------------------------------------

  Yeah,         its hard                If you had have only seen
--3-----8\7-0-------------8\7-0----------------------------------------------
-----------------------------------------------------------------------------
-----------------------------------------------------------------------------
-----------------------------------------------------------------------------
-----------------------------------------------------------------------------
-----------------------------------------------------------------------------

                             Take control       Don't be afraid to bleed
                                                                        G
-------5--7-5-3-------3------8------------------------------------------/7---
-5p3-3----------5p3-3--------------------------------------------------------
-----------------------------------------------------------------------------
-----------------------------------------------------------------------------
-----------------------------------------------------------------------------
-----------------------------------------------------------------------------

I hope this is right.  I know I'm perfect most of the time, but there could be a
rare occurence that made this wrong.  Anyway, that's what i think it is.

-Landon Boyte
questions, comments:
e-mail me at I_Don't_Care@whatever.com
Comments