Jet - Lazy Gun Chords & Tabs

 

Lazy Gun Chords & Tabs

Jet Chords & Tabs

Version: 2 Type: Tab 0 ratings
1 star 2 stars 3 stars 4 stars 5 stars
comments

Lazy Gun Tab

Song:Lazy Gun
Band:Jet
Album:Get Born
Tabbed by the big eejit
                     -Here are the four main bits- 
Intro
e---------------------------------------------------------------------|
B-5\7-x-7--5\7-x-7--5\7-x-7--5\7-x-7--5\8-8-8-8-8-8\10-10-10-10-10-10-|
G-5\7-x-7--5\7-x-7--5\7-x-7--5\7-x-7--5\8-8-8-8-8-8\10-10-10-10-10-10-|
D-5\7-x-7--5\7-x-7--5\7-x-7--5\7-x-7--5\8-8-8-8-8-8\10-10-10-10-10-10-|
A-3\5-x-5--3\5-x-5--3\5-x-5--3\5-x-5--3\6-6-6-6-6-6\-8--8--8--8--8--8-|
E---------------------------------------------------------------------|
[ Tab from: http://www.guitartabs.cc/tabs/j/jet/lazy_gun_tab_ver_2.html ]
Verse
e---------------------------------------------------|
B-5\7-x-7--5\7-x-7--5\8-8-8-8-8-8\10-10-10-10-10-10-|
G-5\7-x-7--5\7-x-7--5\8-8-8-8-8-8\10-10-10-10-10-10-|
D-5\7-x-7--5\7-x-7--5\8-8-8-8-8-8\10-10-10-10-10-10-|
A-3\5-x-5--3\5-x-5--3\6-6-6-6-6-6\-8--8--8--8--8--8-|
E---------------------------------------------------|

Chorus
e-----2-------2-------2-------2-------2-------2-------2-------2---|
B---3---3---3---3---3---3---3---3---3---3---3---3---3---3---3---3-|
G-2-------2-------2-------2---------------------------------------|
D---------------------------------2-------2-----------------------|
A-------------------------------------------------2-------2-------|
E-----------------------------------------------------------------|

Bridge             after Bridge 4x play this
e---------         e--------|    
B-7~-8~-5~         B-7~-10~-|
G-7~-8~-5~         G-7~-10~-|
D-7~-8~-5~         D-7~-10~-|
A-5~-6~-3~         A-5~--8~-|
E---------         E--------|
intro 2x
verse 4x
chorus 2x
verse 4x
chorus 3x
bridge 4x
chorus 5x
Comments