Jet - Lazy Gun Chords & Tabs

 

Lazy Gun Chords & Tabs

Jet Chords & Tabs

Version: 2 Type: Bass Tab 0 ratings
1 star 2 stars 3 stars 4 stars 5 stars
comments

Lazy Gun Bass Tab

		     LAZY GUN - Jet
Tuning: Standard (EADG)

Tabbed By: Damo
[ Tab from: http://www.guitartabs.cc/tabs/j/jet/lazy_gun_btab_ver_2.html ]
Intro:
G|---------------------------------------|
D|---------------------------------------|
A|---------------------------------------|
E|---5-5--0303-5-5--0303----------------|
verse:
G|---------------------------------------|
D|---------------------------------------|
A|---------------------8-8-8-8-----------|
E|---5-5--030366--66-------------------|
chorus: 
G|---------------------------------------|
D|---------------------------------------|
A|-------5-------------------------------|
E|--------------7-------5-----3----------|
Chorus
G|--------------------------------------------------------------------|
D|------12-----------12----------12-----------------------------------|
A|-----------10h12---------14----------14-----12----------------------|
E|----------------------------------------------------15-15-14-12-10--|
Bridge:
G|--------------------------------------------------------|
D|--------------------------------------------------------|
A|--------------------------------------------------------|   X2
E|--20h2-2--3-0h3-3---2-0h2-2---3-0h3-3-----------------|

G|--------------------------------------------------------|
D|--------------------------------------------------------|
A|--------------------------------------------------------|
E|----5-------7-------------------------------------------|

Cudnt be bothered with writing out how many times to play each note so jus listen to the
song and u shud get it!
Comments