Jet - Last Chance Chords & Tabs

 

Last Chance Chords & Tabs

Jet Chords & Tabs

Version: 2 Type: Tab 0 ratings
1 star 2 stars 3 stars 4 stars 5 stars
comments

Last Chance Tab

intro
--------------------------------|
--------------------------------|x4
--------------------------------|
-7-7-7-7-7----------------------|
-7-7-7-7-7----------------------|
-5-5-5-5-5----------------------|
riff
--------------------------------------------|
--------------------------------------------|
--------------------------------------------|x4
-7-7-5-7-5-5-9-10-10------------------------|
-7-7-5-7-5-5-9-10-10------------------------|
-5-5-3-5-3-3-7-8-8--------------------------|

verse
both guitars come in playing
----------------------------------------|
----------------------------------------|
----------------------------------------|x4
-7-7-5-7-5-5-9-10-10--------------------|
-7-7-5-7-5-5-9-10-10--------------------|
-5-5-3-5-3-3-7-8-8----------------------|
[ Tab from: http://www.guitartabs.cc/tabs/j/jet/last_chance_tab_ver_2.html ]
chorus
--------------------------------|
--------------------------------|
--------------------------------|
-9--9--7--9--9--9-9-7-9---------|x3
-9--9--7--9--9--7-9-9-7---------|
-7--7--5--7--7--7-7-5-7---------|
(on the 4rth time play this )
-------------------------------|
-------------------------------|
-------------------------------|
-7-7-5-7-7-9-9-7-9-9-----------|
-7-7-5-7-7-9-9-7-9-9-----------|
-5-5-3-5-5-7-7-5-7-7-----------|
I dont know the solo but I think it goes here but if anyone gets it
send it to twitch_loves_panger@hotmail.com

chorus
--------------------------------|
--------------------------------|
--------------------------------|
-9--9--7--9--9--9-9-7-9---------|x3
-9--9--7--9--9--7-9-9-7---------|
-7--7--5--7--7--7-7-5-7---------|
(on the 4rth time play this )
-------------------------------|
-------------------------------|
-------------------------------|
-7-7-5-7-7-9-9-9-9-11----------|
-7-7-5-7-7-9-9-9-9-11----------|
-5-5-3-5-5-7-7-7-7-9-----------|
the end
Comments