Jet - Get What You Need Chords & Tabs

 

Get What You Need Chords & Tabs

Jet Chords & Tabs

Version: 3 Type: Tab 0 ratings
1 star 2 stars 3 stars 4 stars 5 stars
comments

Get What You Need Tab

I know that theres already a tab for this song but i just thought it helps
to have more than one version of a song, enjoy!have a nice day!Ne probs---
in_your_world@hotmail.co.uk or rhcp_3454@hotmail.com but u'll hav beta luck wiv
inyourworld

Tuning-Drop D (DADgbe)low-high

Intro&verse:
|--------------------------R
|--------------------------E
|--------------------------P
|-11--11-11-11---11--11-11-E
|-11--13-13-11---14--13-13-A
|-11--11-11-11---11--11-11-T

Guitar 2-Intro:
|-------------------|
|-------------------|
|-14-14-14-14-14-14-|
|-xx-xx-xx-xx-xx-xx-|
|-11-11-11-11-11-11-|
|-------------------|
|-------------------|

Pre chorus:
|--------------------------------------------------------------------|
|--------------------------------------------------------------------|
|--------------------------------------------------------------------|
|-11--11-9---4-2-4-2-------11--11-9---4-4-4--6-6-4h6-6--4h6-6--6-6-6-|
|-11--11-9---4-2-4-2-(x3)--11--11-9---4-4-4--6-6-4h6-6--4h6-6--6-6-6-|
|-11--11-9---4-2-4-2-------11--11-9---4-4-4--6-6-4h6-6--4h6-6--6-6-6-|
                                    OR
|--------------------|-2-2-2------8-8-8-8-8------------9-|
|-4-6---6-4----------|-2-2-2------4-4-4-4-4--play this---|
|-4-6---6-4----------|-x-x-x------x-x-x-x-x---however----|
|-4-6---6-4--4-2-4-2-|-4-4-4--6-6-6-6-6-6-6---many-------| Play whichever
|-2-4---4-2--4-2-4-2-|-4-4-4--6-6-6-6-6-6-6----times-----|    you prefer
|------------2-0-2-0-|-2-2-2--4-4-4-4-4-4-4----needed----|

Guitar 1:
|---------------|-----------------------|
|---------------|-----------------------|
|---------------|-------4---------------|
|---6---4-------|---6-------------------|
|-4---4---4-7-4-|-4---4---4-7-4-4-4-2-4-|
|---------------|-----------------------|

Chorus:
|------------0--2-2-0-2-0-0-|-2-2-2------8-8-8-8-8------------9-|
|-6-6-4-6-4--0--2-2-0-2-0-0-|-2-2-2------4-4-4-4-4--play this---|
|-6-6-4-6-4--x--x-x-x-x-x-x-|-x-x-x------x-x-x-x-x-however many-|
|-6-6-4-6-4--2--4-4-2-4-2-2-|-4-4-4--6-6-6-6-6-6-6--times-------|
|-4-4-2-4-2--2--4-4-2-4-2-2-|-4-4-4--6-6-6-6-6-6-6-------needed-|
|------------0--2-2-0-2-0-0-|-2-2-2--4-4-4-4-4-4-4--------------|
                            OR
|-------------------------------------------------------------------------|
|-------------------------------------------------------------------------|
|-------------------------------------------------------------------------|
|-11-11-9-11-9--4-4-2-4-2-------11--11-9---4-4-4--6-6-4h6-6--4h6-6--6-6-6-|
|-11-11-9-11-9--4-4-2-4-2-(x3)--11--11-9---4-4-4--6-6-4h6-6--4h6-6--6-6-6-|
|-11-11-9-11-9--4-4-2-4-2-------11--11-9---4-4-4--6-6-4h6-6--4h6-6--6-6-6-|
Again they both work, it just depends on how you like playing it

Verse:
|--------------------------R
|--------------------------E
|--------------------------P
|-11--11-11-11---11--11-11-E
|-11--13-13-11---14--13-13-A
|-11--11-11-11---11--11-11-T
[ Tab from: http://www.guitartabs.cc/tabs/j/jet/get_what_you_need_tab_ver_3.html ]
Pre chorus:
|--------------------------------------------------------------------|
|--------------------------------------------------------------------|
|--------------------------------------------------------------------|
|-11--11-9---4-2-4-2-------11--11-9---4-4-4--6-6-4h6-6--4h6-6--6-6-6-|
|-11--11-9---4-2-4-2-(x3)--11--11-9---4-4-4--6-6-4h6-6--4h6-6--6-6-6-|
|-11--11-9---4-2-4-2-------11--11-9---4-4-4--6-6-4h6-6--4h6-6--6-6-6-|
                                    OR
|--------------------|-2-2-2------8-8-8-8-8------------9-|
|-4-6---6-4----------|-2-2-2------4-4-4-4-4--play this---|
|-4-6---6-4----------|-x-x-x------x-x-x-x-x---however----|
|-4-6---6-4--4-2-4-2-|-4-4-4--6-6-6-6-6-6-6---many-------| Play whichever
|-2-4---4-2--4-2-4-2-|-4-4-4--6-6-6-6-6-6-6----times-----|    you prefer
|------------2-0-2-0-|-2-2-2--4-4-4-4-4-4-4----needed----|

Guitar 1:
|---------------|-----------------------|
|---------------|-----------------------|
|---------------|-------4---------------|
|---6---4-------|---6-------------------|
|-4---4---4-7-4-|-4---4---4-7-4-4-4-2-4-|
|---------------|-----------------------|

Chorus:
|------------0--2-2-0-2-0-0-|-2-2-2------8-8-8-8-8------------9-|
|-6-6-4-6-4--0--2-2-0-2-0-0-|-2-2-2------4-4-4-4-4--play this---|
|-6-6-4-6-4--x--x-x-x-x-x-x-|-x-x-x------x-x-x-x-x-however many-|
|-6-6-4-6-4--2--4-4-2-4-2-2-|-4-4-4--6-6-6-6-6-6-6--times-------|
|-4-4-2-4-2--2--4-4-2-4-2-2-|-4-4-4--6-6-6-6-6-6-6-------needed-|
|------------0--2-2-0-2-0-0-|-2-2-2--4-4-4-4-4-4-4--------------|
                            OR
|-------------------------------------------------------------------------|
|-------------------------------------------------------------------------|
|-------------------------------------------------------------------------|
|-11-11-9-11-9--4-4-2-4-2-------11--11-9---4-4-4--6-6-4h6-6--4h6-6--6-6-6-|
|-11-11-9-11-9--4-4-2-4-2-(x3)--11--11-9---4-4-4--6-6-4h6-6--4h6-6--6-6-6-|
|-11-11-9-11-9--4-4-2-4-2-------11--11-9---4-4-4--6-6-4h6-6--4h6-6--6-6-6-|

Solo:
Guitar 1:
|----------------------------------------------------|
|----------------------------------------------------|
|----------------------------------------------------|
|-6-6-8p6-6---6-6-8p6-6---6-6-8p6-6------------------|
|-4-4-4---4---4-4-4---4---4-4-4---4------------7-7-9-|
|------------------------------------0-1-2-2-2-5-5-7-|
and i think guitar2 plays
|---------------------------------------------------------------|
|---------------------------------------------------------------|
|---------------------------------------------------------------|
|-11-11-11-11----11-11-11-11----11-11-11-11--------4-4-4--7-7-7-|
|-11-11-13-11----11-11-13-11----11-11-13-11--------4-4-4--7-7-7-|
|-11-11-11-11----11-11-11-11----11-11-11-11----2-3-4-4-4--7-7-7-|

Chorus:
|------------0--2-2-0-2-0-0-|-2-2-2------8-8-8-8-8------------9-|
|-6-6-4-6-4--0--2-2-0-2-0-0-|-2-2-2------4-4-4-4-4--play this---|
|-6-6-4-6-4--x--x-x-x-x-x-x-|-x-x-x------x-x-x-x-x-however many-|
|-6-6-4-6-4--2--4-4-2-4-2-2-|-4-4-4--6-6-6-6-6-6-6--times-------|
|-4-4-2-4-2--2--4-4-2-4-2-2-|-4-4-4--6-6-6-6-6-6-6-------needed-|
|------------0--2-2-0-2-0-0-|-2-2-2--4-4-4-4-4-4-4--------------|
                            OR
|-------------------------------------------------------------------------|
|-------------------------------------------------------------------------|
|-------------------------------------------------------------------------|
|-11-11-9-11-9--4-4-2-4-2-------11--11-9---4-4-4--6-6-4h6-6--4h6-6--6-6-6-|
|-11-11-9-11-9--4-4-2-4-2-(x3)--11--11-9---4-4-4--6-6-4h6-6--4h6-6--6-6-6-|
|-11-11-9-11-9--4-4-2-4-2-------11--11-9---4-4-4--6-6-4h6-6--4h6-6--6-6-6-|

Outro:
|-2-2-2------8-8-8-8-8------------------0--|
|-2-2-2------4-4-4-4-4------------------0--|
|-x-x-x------x-x-x-x-x--as many----6-6--x--|
|-4-4-4--6-6-6-6-6-6-6---times-----6-6--2--|
|-4-4-4--6-6-6-6-6-6-6---needed----4-4--2--|
|-2-2-2--4-4-4-4-4-4-4------------------0--|
                      OR
|-------------------------
|-------------------------
|-------------------------
|-11-11-9-11-9--4-4-2-4-2-
|-11-11-9-11-9--4-4-2-4-2-(x3)
|-11-11-9-11-9--4-4-2-4-2-

--------------------------------------------------------|
--------------------------------------------------------|
-------------------------------------------------6-6--9-|
-11--11-9---4-4-4--6-6-4h6-6--4h6-6--6-6-6-------6-6--9-|
-11--11-9---4-4-4--6-6-4h6-6--4h6-6--6-6-6-(etc)-4-4--7-|
-11--11-9---4-4-4--6-6-4h6-6--4h6-6--6-6-6--------------|

END!
Comments