Jet - Cold Hard Bitch Chords & Tabs

 

Cold Hard Bitch Chords & Tabs

Jet Chords & Tabs

Version: 7 Type: Tab 0 ratings
1 star 2 stars 3 stars 4 stars 5 stars
comments

Cold Hard Bitch Tab

   
this tab is professional I got it from an awsome tabber and guitarist but the vocals
might be messed up a bit


######################## Jet/Cold Hard Bitch ################################


intro
 E|--------------------------------------------|
 B|--------------------------------------------|
 G|--------------------------------------------|
 D|7~~~~~~~----------7---7-7--7--7-7--7-7--7---|
 A|7~~~~~~~----------7---7-7--7--7-7--7-7--7---|
 E|5~~~~~~~--55555555-555-5-55-55-5-55-5----h8-|

 E|-----------------------------------------|
 B|-----------------------------------------|
 G|-----------------------------------------|  Repeat 1
 D|-7-7--7-7--7--7-7--7-7--7--7-7--7-7--7---|
 A|-7-7--7-7--7--7-7--7-7--7--7-7--7-7--7---|
 E|5-5-55-5-55-h8-5-55-5-55-h8-5-55-5-55-h8-|


 E|---------------------------------------------|
 B|---------------------------------------------|
 G|---------------------------------------------|
 D|-5~~~5-5-5-5-5-5-5-5-5-5~~~5-5-5-5-5-5-5-5-5-|
 A|-5~~~5-5-5-5-5-5-5-5-5-5~~~5-5-5-5-5-5-5-5-5-|
 E|-3~~~3-3-3-3-3-3-3-3-3-3~~~3-3-3-3-3-3-3-3-3-|


verse                    repeat 2
 E|---------------|---------------------|
 B|---------------|---------------------|
 G|---------------|--7------------------|
 D|-7--7-7--------|--7--7--7-7----------|
 A|-7--7-7--------|--5--7--7-7----------|
 E|-5--5-5-0-3-0-3|-----5--5-5-0-3-0-3--|

 E|-------------------------------------|
 B|-------------------------------------|
 G|-----------------------------------7-|
 D|-7----------------------------5----7-|
 A|-7----------------------------5----5-|
 E|-5----------------------------3------|
  gotta leve town got another appointment

 E|---------------|
 B|---------------|
 G|---------------|
 D|-7--7-7--------|
 A|-7--7-7--------|
 E|-5--5-5-0-3-0-3|

 E|--------------------------------------------|
 B|--------------------------------------------|
 G|------------------------------------------7-|
 D|-7-----------------------------------5----7-|
 A|-7-----------------------------------5----5-|
 E|-5-----------------------------------3------|
  spent all my rent girl i know you enjoyed it
  
 E|---------------|
 B|---------------|
 G|---------------|
 D|-7--7-7--------|
 A|-7--7-7--------|
 E|-5--5-5-0-3-0-3|

 E|----------------------------------------------|
 B|----------------------------------------------|
 G|-7~~~~~~~~~~~~~~~~~~~~~~~~~~~~~~~~~~~~~~~~~~~~|
 D|-7~~~~~~~~~~~~~~~~~~~~~~~~~~~~~~~~~~~~~~~~~~~~|
 A|-5~~~~~~~~~~~~~~~~~~~~~~~~~~~~~~~~~~~~~~~~~~~~|
 E|----------------------------------------------|
  gonna hang around till there's nobody dancing

 E|----------------------------------------------------|
 B|----------------------------------------------------|
 G|-9~~~~~~~~~~~~~~~~~~~~~~~~~~~~~~--------------------|
 D|-9~~~~~~~~~~~~~~~~~~~~~~~~~~~~~~5~~~~~~~~~~~~~~~~~~~|
 A|-7~~~~~~~~~~~~~~~~~~~~~~~~~~~~~~3~~~~~~~~~~~~~~~~~~~|
 E|--------------------------------3~~~~~~~~~~~~~~~~~~~|
  dont wanna hold hands and talk about our plans alright

 E|---------------------------------|
 B|---------------------------------|
 G|-7--7--7--5-7-5-7--5--7--5-7-7-5-|
 D|-7--7--7--5-7-5-7--5--7--5-7-7-5-|
 A|-5--5--5--5-5-5-5--5--5--5-5-5-5-|
 E|---------------------------------|

chourus
 E|----------------------------------------------------------------|
 B|----------------------------------------------------------------|
 G|------------------------------------------7----------------7----|
 D|-7--------------7-5---------------------5-7----------------7----|
 A|-7--------------7-5---------------------5-5----------------5----|
 E|-5--------------5-3---------------------3-----------------------|
  Cold hard bitch just a kiss on the lips and i was on my knees 

 E|--------------------|
 B|--------------------|
 G|--------------------|
 D|-3-3-3-3-3-3----5---|
 A|-3-3-3-3-3-3----5---|
 E|-0-1-0-1-0-1----3---|
   im waiting give me

 E|--------------------------------------------------------------------|
 B|--------------------------------------------------------------------|
 G|--------------------------------------------------------7~~~~~~~~~~~|
 D|-7--------------7-5---------------------5---------------7~~~~~~~~~~~|
 A|-7--------------7-5---------------------5---------------5~~~~~~~~~~~|
 E|-5--------------5-3---------------------3---------------------------|
  Cold hard bitch she was shaking her hips and that was all that i need


verse
 E|--------------------------------------------------------------|
 B|--------------------------------------------------------------|
 G|--------------------------7-----------------7-----------------|
 D|-7--7-7--7-7--7-7---------5--7--7-7---------5--7--7-7---------|
 A|-7--7-7--7-7--7-7---------5--7--7-7---------5--7--7-7---------|
 E|-5--5-5--5-5--5-5-0-3-0-3----5--5-5-0-3-0-3----5--5-5-0-3-0-3-|

 E|--------------------------------------------|
 B|--------------------------------------------|
 G|------------------------------------------7-|
 D|-7-----------------------------------5----7-|
 A|-7-----------------------------------5----5-|
 E|-5-----------------------------------3------|
  gonna check her out she's my latest attraction

 E|---------------|
 B|---------------|
 G|---------------|
 D|-7--7-7--------|
 A|-7--7-7--------|
 E|-5--5-5-0-3-0-3|

 E|--------------------------------------|
 B|--------------------------------------|
 G|------------------------------------7-|
 D|-7-----------------------------5----7-|
 A|-7-----------------------------5----5-|
 E|-5-----------------------------3------|
  gonna hang around wanna get a reaction
  
 E|---------------|
 B|---------------|
 G|---------------|
 D|-7--7-7--------|
 A|-7--7-7--------|
 E|-5--5-5-0-3-0-3|
[ Tab from: http://www.guitartabs.cc/tabs/j/jet/cold_hard_bitch_tab_ver_7.html ]
 E|----------------------------------------------|
 B|----------------------------------------------|
 G|-7~~~~~~~~~~~~~~~~~~~~~~~~~~~~~~~~~~~~~~~~~~~~|
 D|-7~~~~~~~~~~~~~~~~~~~~~~~~~~~~~~~~~~~~~~~~~~~~|
 A|-5~~~~~~~~~~~~~~~~~~~~~~~~~~~~~~~~~~~~~~~~~~~~|
 E|----------------------------------------------|
  gonna take her home cause she's over romancing

 E|----------------------------------------------------|
 B|----------------------------------------------------|
 G|-9~~~~~~~~~~~~~~~~~~~~~~~~~~~~~~--------------------|
 D|-9~~~~~~~~~~~~~~~~~~~~~~~~~~~~~~5~~~~~~~~~~~~~~~~~~~|
 A|-7~~~~~~~~~~~~~~~~~~~~~~~~~~~~~~3~~~~~~~~~~~~~~~~~~~|
 E|--------------------------------3~~~~~~~~~~~~~~~~~~~|
  dont wanna hold hands and talk about our plans alright

 E|---------------------------------|
 B|---------------------------------|
 G|-7--7--7--5-7-5-7--5--7--5-7-7-5-|
 D|-7--7--7--5-7-5-7--5--7--5-7-7-5-|
 A|-5--5--5--5-5-5-5--5--5--5-5-5-5-|
 E|---------------------------------|


chourus
 E|----------------------------------------------------------------|
 B|----------------------------------------------------------------|
 G|------------------------------------------7----------------7----|
 D|-7--------------7-5---------------------5-7----------------7----|
 A|-7--------------7-5---------------------5-5----------------5----|
 E|-5--------------5-3---------------------3-----------------------|
  Cold hard bitch just a kiss on the lips and i was on my knees 

 E|--------------------|
 B|--------------------|
 G|--------------------|
 D|-3-3-3-3-3-3----5---|
 A|-3-3-3-3-3-3----5---|
 E|-0-1-0-1-0-1----3---|
   im waiting give me

 E|----------------------------------------------------------------|
 B|----------------------------------------------------------------|
 G|------------------------------------------7----------------7----|
 D|-7--------------7-5---------------------5-7----------------7----|
 A|-7--------------7-5---------------------5-5----------------5----|
 E|-5--------------5-3---------------------3-----------------------|
  Cold hard bitch she was shaking her hips and that was all that i need

 E|--------------------|
 B|--------------------|
 G|--------------------|
 D|-3-3-3-3-3-3----5---|
 A|-3-3-3-3-3-3----5---|
 E|-0-1-0-1-0-1----3---|
   im waiting give me

 E|--------------------------------------------------------------------|
 B|--------------------------------------------------------------------|
 G|--------------------------------------------------------7~~~~~~~~~~~|
 D|-7--------------7-5---------------------5---------------7~~~~~~~~~~~|
 A|-7--------------7-5---------------------5---------------5~~~~~~~~~~~|
 E|-5--------------5-3---------------------3---------------------------|
  Cold hard bitch just a kiss on the lips and i was on my knees

 E|------------------------|
 B|------------------------|
 G|---------7-7------------| repeat 7
 D|-7--5-5--7-7-----7------|
 A|-7--5-5--5-5-----7------|
 E|-5--3-3------0-3-5-0-3--|

 E|------------------------------------------------------|
 B|------------------------------------------------------|
 G|------------------------------------------------------|  
 D|-7-7--7-7--7--7-7--7-7--7--7-7--7-7--7--7-7--7-7--7---|
 A|-7-7--7-7--7--7-7--7-7--7--7-7--7-7--7--7-7--7-7--7---|
 E|5-5-55-5-55-h8-5-55-5-55-h8-5-55-5-55-h8-5-55-5-55-h8-|

 E|---------------------------------------------|
 B|---------------------------------------------|
 G|---------------------------------------------|
 D|-5~~~5-5-5-5-5-5-5-5-5-5~~~5-5-5-5-5-5-5-5-5-|
 A|-5~~~5-5-5-5-5-5-5-5-5-5~~~5-5-5-5-5-5-5-5-5-|
 E|-3~~~3-3-3-3-3-3-3-3-3-3~~~3-3-3-3-3-3-3-3-3-|

 E|----------------------------------------------------------------|
 B|----------------------------------------------------------------|
 G|------------------------------------------7----------------7----|
 D|-7--------------7-5---------------------5-7----------------7----|
 A|-7--------------7-5---------------------5-5----------------5----|
 E|-5--------------5-3---------------------3-----------------------|
  Cold hard bitch just a kiss on the lips and i was on my knees 

 E|--------------------|
 B|--------------------|
 G|--------------------|
 D|-3-3-3-3-3-3----5---|
 A|-3-3-3-3-3-3----5---|
 E|-0-1-0-1-0-1----3---|
   im waiting give me

 E|----------------------------------------------------------------|
 B|----------------------------------------------------------------|
 G|------------------------------------------7----------------7----|
 D|-7--------------7-5---------------------5-7----------------7----|
 A|-7--------------7-5---------------------5-5----------------5----|
 E|-5--------------5-3---------------------3-----------------------|
  Cold hard bitch she was shaking her hips and that was all that i need

 E|--------------------|
 B|--------------------|
 G|--------------------|
 D|-3-3-3-3-3-3----5---|
 A|-3-3-3-3-3-3----5---|
 E|-0-1-0-1-0-1----3---|
   im waiting give me

 E|----------------------------------------------------------------|
 B|----------------------------------------------------------------|
 G|------------------------------------------7----------------7----|
 D|-7--------------7-5---------------------5-7----------------7----|
 A|-7--------------7-5---------------------5-5----------------5----|
 E|-5--------------5-3---------------------3-----------------------|
  Cold hard bitch just a kiss on the lips and i was on my knees 

 E|--------------------|
 B|--------------------|
 G|--------------------|
 D|-3-3-3-3-3-3----5---|
 A|-3-3-3-3-3-3----5---|
 E|-0-1-0-1-0-1----3---|
   im waiting give me

if any of you jet fans could tab a good version of get me outta here and put it on
ultimate guitar that would be awsome
Comments