Jet - Cold Hard Bitch Chords & Tabs

 

Cold Hard Bitch Chords & Tabs

Jet Chords & Tabs

Version: 3 Type: Bass Tab 0 ratings
1 star 2 stars 3 stars 4 stars 5 stars
comments

Cold Hard Bitch Bass Tab

this is a preety easy song and lots of fun to play in a band

intro 
|5h7-------7----7-5---5------------------|
|------5h7----------7---7-6-5------------|
|----------------------------------------|
|----------------------------------------|

|----------------------------------------|
|------------5-5-------------------------|
|5-5-3-5-3-3-----5-5-3-5-3-3-------------|
|----------------------------3-3---------|

verse

|---------------------------------------------------------------------|
|------------------------------------------------------------/77777777|
|5-5-5-2-2-3-3-2-0--5-5-5-2-2-3-3-2-0--5-5-5-2-2-3-3-2-0-0-0----------|
|---------------------------------------------------------------------|x2

chorus

|------------------------------------------------|
|--------------------3-3-3-3-3-5-5-3-3-2-2-------|
|5-5-5-5-5-3-3-3-3-3-----------------------3-3---|
|------------------------------------------------|x3

|-------------------------------------------------------|
|------------------------------------------------5------|
|5-5-5-5-5-5-5-5------------------------------/5--------|
|----------------1-1-1-1-1-1-1-1--3-3-3-3-3-3-----------|

bass solo 

|5h7-5h7-7-5---7-5---5----------5h7-5h7-7-5---7-5---5------|
|------------7-----7---7-6-5----------------7-----7---7-6-5|
|----------------------------------------------------------|
|----------------------------------------------------------|

verse x1 this time not x2
chorus x1 

interlude bass stops then comes in at the end of the keyboard note and does
[ Tab from: http://www.guitartabs.cc/tabs/j/jet/cold_hard_bitch_btab_ver_3.html ]
|-----------------------------|
|-----------------------------|
|/12-12-12-12-12-12-----------|
|-----------------------------|                         

|---------4-----------0-2-0-----------------------------|
|-----4-7---7-4-----2-------2---/5-5-3-5-5-3-55-33-22---|                   
|5-5-----------3-3-----------3------------------------33|
|-------------------------------------------------------|x2

second time only 
add this part

|--------------------------------------------------------|
|----------------------------5------(drum fill pause)----|
|-55555555-----------------5-----------------------------|
|----------11111111-333333-------------------------------|

|--------------------------------------------------------|
|-----------------3-3-333-55-33-22-----------------------|
|5-5-555--3-3-333------------------33--------------------|
|--------------------------------------------------------|x2
                            first and second ending  third ending
|-------------------------|------------------------|--------------|
|-------------------------|--5--5---7-5------------|---5~~~-------|
|55555555-----------------|-5--5--5-----7-5--------|-5------------|
|---------11111111-333333-|------------------------|--------------|

outro 
|---------------------------------------------------------|
|-------------5-5-5---------------------------------------|
|-5-5-3-5-3-3-------5-5-3-5-3-3-0-0-----------------------|
|---------------------------------------------------------|

this tab is near perfect if u listen to the song u will hear the bass.  
           
                               keep rockin!!!!
Comments